PrimaNota.ru - самый крупный в мире бесплатный архив песенных текстов, аккордов, табулатур и нот


Bolan Marc - Telegram Sam (feat. T. Rex) - текст песни, таба, бас-таба, видео

Регистрация Запомнить меня
Войти через:  Facebook Google Twitter Vk Yandex Mail.ru

Bolan Marc - Telegram Sam (feat. T. Rex) - текст песни, таба, бас-таба, видео

Печатать
Просмотров: 185
Уроки эстрадного вокала в Санкт-Петербурге
Авторы музыки: Marc Bolan

I do believe this is pretty much the entire song...

Intro/Verses etc

e|-----------------------|-----------------------|
B|--X--2--------2--------|--X--2--------2--------|
G|--X--2--------2--------|--X--2--------2--------|
D|--------4--2-----4--2--|-------4--2------4--2--|
A|-----------------------|-----------------------|
E|-----------------------|-----------------------|

in the verses it goes to D, i.e. when he sings 'Youuuuu, are my main man'
back to A

yea anyway carry on with that until the chorus which is...

      Telegram              Sam      You're my main man...
e|-------------------|-------------------|------------------| 
B|-------------------|-------------------|------------------| 
G|-------------------|--7-7-7-7-7-7-7-7--|------------------| 
D|--3-3-3-3-3-3-3-3--|--7-7-7-7-7-7-7-7--|--7-7-7-7-7-7-7-7-|
A|--3-3-3-3-3-3-3-3--|--5-5-5-5-5-5-5-5--|--5-5-5-5-5-5-5-5-|
E|--1-1-1-1-1-1-1-1--|-------------------|--5-5-5-5-5-5-5-5-|


and so on and so forth, please rate, danke schon!

x
Добавлено: 21.07.2012
Другие материалы по этой песне:

Страница создана 18.03.2012
http://primanota.ru/bolan-marc/telegram-sam-chords.htm
Привет, Гость.
Предлагаем пройти революционный курс по гитаре.
Подарок от PrimaNota.Ru, забирай!