PrimaNota.ru - самый крупный в мире бесплатный архив песенных текстов, аккордов, табулатур и нот


Bolan Marc - Lean Woman Blues (feat. T. Rex) - текст песни, таба, видео

Регистрация Запомнить меня
Войти через:  Facebook Google Twitter Vk Yandex Mail.ru

Bolan Marc - Lean Woman Blues (feat. T. Rex) - текст песни, таба, видео

Печатать
Просмотров: 170
Уроки эстрадного вокала в Санкт-Петербурге
Авторы музыки: Marc Bolan
Авторы текста: Marc Bolan
-------------------------------------------------------------------------------
Lean Woman Blues from the Electric Warrior album (1971) - T.Rex
-------------------------------------------------------------------------------
Bolan's blues at his best...

Tabbed by: Barry Rankin
View lesson at: http://www.youtube.com/watch?v=yYCgoxkkMqc


Tuning: EADGBe
Tempo: slow


One an' two an' buckle my shoe on...

                                                         Ah lean love
   E 
e|-0--0-0-0-0---0-0-0-0-0-0-----0-0-0-0---0-0-0-0-0-0-----0-0-0-0---------------------------------|
B|-0--2-2-0-2---2-0-2-0-2-0-----2-2-0-2---2-0-2-0-2-0-----2-2-0-2---------------------------------|
G|-1--1-1-1-1---1-1-1-1-1-1---1-1-1-1-1---1-1-1-1-1-1---1-1-1-1-1---------------------------------|
D|-2--------------------------2-------------------------2-----------------------------------------|
A|-2--------------------------2-------------------------2-----------------------------------------|
E|-0------------------------3-0-----------------------3-0-----------------------------------------|
   

All you give to me/                           I'm like a beggar/ With the sky/ And I'm blue
is lean love                                  in the sand        in his hand
   A             E                            B               A              E
e|-5-5-5-5-5-5-0-0-0-0-0-0---0-0-0-0-0--0-0-0-7-7-7-7-7-7-7---5-5-5-5-5-5--0-0--------------------|
B|-5-5-7-5-5-7-0-0-2-2-0-2---2-0-2-0-2--0-2-0-7-7-9-7-7-9-7---5-5-7-5-5-7--0-0--------------------|
G|-6-6-6-6-6-6-0-1-1-1-1-1---1-1-1-1-1--1-1-0-8-8-8-8-8-8-8---6-6-6-6-6-6--0-1--------------------|
D|-5-------------2----------------------------7---------------5--------------2--------------------|
A|-7-------------2----------------------------9---------------7--------------2--------------------|
E|-5-------------0----------------------------7---------------5--------------0--------------------|



                   E  A7
e|-5----4---3--2-0-0--5-5---5-5---5-5-5-5---------------------------------------------------------|
B|--4----3--2--1-0-0--4-4---4-4---4-4-4-4---------------------------------------------------------|
G|5----4----3--2-0-1--4-4---4-4---4-4-4-4---------------------------------------------------------|
D|-----------------2--4-4---4-4---4-4-4-4---------------------------------------------------------|
A|-----------------2------------------------------------------------------------------------------|
E|-----------------0------------------------------------------------------------------------------|


   Ah black day   All you give to me/                        Well you're the/
                            Are your wild ways                     love of my life
   E             A                  E                             B
e|-0-0-0-0-0-0---5-5-5-5--5-5-5-0---0-0-0-0-0---0-0-0-0-0--0-0-0--7-7-7-7-7-7-7-------------------|
B|-0-2-2-0-2-0---5-5-7-5--5-7-5-0---0-2-2-0-2---2-0-2-0-2--0-2-0--7-7-9-7-7-9-7-------------------|
G|-1-1-1-1-1-0---6-6-6-6--6-6-6-0---1-1-1-1-1---1-1-1-1-1--1-1-1--8-8-8-8-8-8-8-------------------|
D|-2-------------5------------------2-----------------------------7-------------------------------|
A|-2-------------7------------------2-----------------------------9-------------------------------|
E|-0-------------5------------------0-----------------------------7-------------------------------|
  

And then you gorge/ And I'm blue...that's untrue!
      me with a knife
   A               E                    E  A7
e|-5-5-5-5-5-5-0---0----5----4---3--2-0-0--5-5---5-5---5-5-5-5------------------------------------|
B|-5-5-7-5-5-7-0---0-----4----3--2--1-0-0--4-4---4-4---4-4-4-4------------------------------------|
G|-6-6-6-6-6-6-0---1---5----4----3--2-0-1--4-4---4-4---4-4-4-4------------------------------------|
D|-5---------------2--------------------2--4-4---4-4---4-4-4-4------------------------------------|
A|-7---------------2--------------------2---------------------------------------------------------|
E|-5---------------0--------------------0---------------------------------------------------------|


  Lightening     All the heavy world...is frightening.../          I'm like a child/
                                               I'm talkin' to you        in the sand
   E             A                 E                              B
e|-0-0-0-0-0-0---5-5-5-5--5-5-5-0--0-0-0-0-0---0-0-0-0-0--0-0-0---7-7-7-7-7-7-7-------------------|
B|-0-2-2-0-2-0---5-5-7-5--5-7-5-0--0-2-2-0-2---2-0-2-0-2--0-2-0---7-7-9-7-7-9-7-------------------|
G|-1-1-1-1-1-0---6-6-6-6--6-6-6-0--1-1-1-1-1---1-1-1-1-1--1-1-1---8-8-8-8-8-8-8-------------------|
D|-2-------------5-----------------2------------------------------7-------------------------------|
A|-2-------------7-----------------2------------------------------9-------------------------------|
E|-0-------------5-----------------0------------------------------7-------------------------------|


On the beach/        Of you.... ah i'm your friend/
    of the land                             lend me your hand
   A               E                   E  A7
e|-5-5-5-5-5-5-0---0----5----4--3--2-0-0--5-5-5-5-5-5-5-5-5-5-------------------------------------|
B|-5-5-7-5-5-7-0---0-----4----3-2--1-0-0--4-4-4-4-4-4-4-4-4-4-------------------------------------|
G|-6-6-6-6-6-6-0---1---5----4---3--2-0-1--4-4-4-4-4-4-4-4-4-4-------------------------------------|
D|-5---------------2-------------------2--4-4-4-4-4-4-4-4-4-4-------------------------------------|
A|-7---------------2-------------------2----------------------------------------------------------|
E|-5---------------0-------------------0----------------------------------------------------------|


1st guitar solo

E|------------------------7pb9b9b9b9b9--7--5--7--5------------------------------------------------|
B|-----5--7--5--7b9r7--5-------------------------7b9r7--5--7--7b9r7--7--5-----5--7--5-------------|
G|--6----------------------------------------------------------------------6----------------------|
D|------------------------------------------------------------------------------------------------|
A|------------------------------------------------------------------------------------------------|
E|------------------------------------------------------------------------------------------------|


E|------------------------------------------------------------------------------------------------|
B|------------------------------------------------------------------------------------------------|
G|--2/4--6--4--6b8--6b8r6--4--2--6b8r6--4--2--4--2------------------------------------------------|
D|--------------------------------------------------4--3--2---------------------------------------|
A|------------------------------------------------------------------------------------------------|
E|------------------------------------------------------------------------------------------------|


                                                Ah lean love      All you give to me is your
                      E  A7                     E                A                
e|--5----4---3--2--0--0--5-5---5-5---5-5-5-5------------------------------------------------------|
B|---4----3--2--1--0--0--4-4---4-4---4-4-4-4------------------------------------------------------|
G|-5----4----3--2--0--1--4-4---4-4---4-4-4-4------------------------------------------------------|
D|--------------------2--4-4---4-4---4-4-4-4----2-2-2-2-2-2-2-2--5-5-5-5-5-5-5-0------------------|
A|--------------------2-------------------------2-2-4-2-2-2-4-2--7-7-9-7-7-7-9-0------------------|
E|--------------------0-------------------------0-0-0-0-0-0-0-0--5-5-5-5-5-5-5-0------------------|


    lean love   mmmh               I'm like a beggar/   with the sky/  and I'm blue
                                           in the sand     in my hand     yes I really love you
   E                                 B                A                E                       E
e|-------------------------------------------------------------------------5----4----3--2--0--0---|
B|--------------------------------------------------------------------------4----3---2--1--0--0---|
G|------------------------------------------------------------------------5----4-----3--2--0--1---|
D|-2-2-2-2-2-2-2-2-2-2-2-2-2-2-2-2---7-7-7--7-7-7--7---5-5-5-5-5-5-5---2----------------------2---|
A|-2-2-4-2-2-2-4-2-2-2-4-2-2-2-4-2---9-9-11-9-9-11-9---7-7-9-7-7-9-7---2----------------------2---|
E|-0-0-0-0-0-0-0-0-0-0-0-0-0-0-0-0---7-7-7--7-7-7--7---5-5-5-5-5-5-5---0----------------------0---|



   A7
e|-5-5-5-5-5-5-5-5-5-5----------------------------------------------------------------------------|
B|-4-4-4-4-4-4-4-4-4-4----------------------------------------------------------------------------|
G|-4-4-4-4-4-4-4-4-4-4----------------------------------------------------------------------------|
D|-4-4-4-4-4-4-4-4-4-4----------------------------------------------------------------------------|
A|------------------------------------------------------------------------------------------------|
E|------------------------------------------------------------------------------------------------|


2nd guitar solo

E|--12v--15b17--15b17--15b17--12--15--15b17--12----------12--15--12--17b18--17b18--15-------------|
B|-----------------------------------------------15--15--------------------------------17---------|
G|------------------------------------------------------------------------------------------------|
D|------------------------------------------------------------------------------------------------|
A|------------------------------------------------------------------------------------------------|
E|------------------------------------------------------------------------------------------------|


E|------15--17--19b20--19b20--17--15------15--17--19b20--19--17--15--17--15--17--15--17--12-------|
B|--17--------------------------------17----------------------------------------------------------|
G|------------------------------------------------------------------------------------------------|
D|------------------------------------------------------------------------------------------------|
A|------------------------------------------------------------------------------------------------|
E|------------------------------------------------------------------------------------------------|


E|--12--------------------------12--16v-----------------------------------------------------------|
B|------15--12--------------12--------------------------------------------------------------------|
G|--------------14--12--14------------------------------------------------------------------------|
D|------------------------------------------------------------------------------------------------|
A|------------------------------------------------------------------------------------------------|
E|------------------------------------------------------------------------------------------------|








************************************

| /   slide up
| \   slide down
| H   hammer-on
| p   pull-off
| ~   vibrato
| +   harmonic
| x   Mute note
| B   Bend
| pb  Pre-bend
| br  Bend release
| pbr Pre-bend release
| brb Bend release bend

************************************
Добавлено: 03.06.2014
Другие материалы по этой песне:
  • Аккорды и текст

Страница создана 08.06.2012
http://primanota.ru/bolan-marc/lean-woman-blues-chords.htm
Привет, Гость.
Предлагаем пройти революционный курс по гитаре.
Подарок от PrimaNota.Ru, забирай!