PrimaNota.ru - самый крупный в мире бесплатный архив песенных текстов, аккордов, табулатур и нот


Boink - Rockstar Tomorrow - таба, видео

Регистрация Запомнить меня
Войти через:  Facebook Google Twitter Vk Yandex Mail.ru

Boink - Rockstar Tomorrow - таба, видео

Печатать
Просмотров: 105
Rockstar Tomorrow by Boink
Boink is a not very well-known band with four people, drummer, bass, guitar, and a
trumpeter. Their songs are pretty good though, and this is the best of them.

tabbed by rdsox556

Tuning: standerd (EADGBe)


Intro
e|--------------------------------------------------------------------------|
B|--------------------------------------------------------------------------|
G|------------------------7-------------------------------------------------|
D|-55555---55555------55555------55555--------------------------------------|
A|-55555---55555------55555------55555--------------------------------------|
E|-33333---33333------3333-------33333--------------------------------------|

e|--------------------------------------------------------------------------|
B|--------------------------------------------------------------------------|
G|------------------------7-------------------------------------------------|
D|-55555---55555------55555----5--------------------------------------------|
A|-55555---55555------55555----5--------------------------------------------|
E|-33333---33333------3333-----3--------------------------------------------|

Verse
e|--------------------------------------------------------------------------|
B|--------------------------------------------------------------------------|
G|--------------------------------------------------------------------------|
D|-----------------------------------0--------------------------------------|
A|-----2-2----0000-----2-2----023--------2-2----0000----2232-------0000-----|
E|--3-3----0-0------3-3----0-0--------3-3----0-0------33-----320000---------|

e|--------------------------------------------------------------------------|
B|--------------------------------------------------------------------------|
G|----444---222-------------------------------------------------------------|
D|-555444222222—x2----------------------------------------------------------|
A|-555222222000-------------2-2---0000--2232--------------------------------|
E|-333---000-------------3-3---0-0----33----320-----------------------------|
   ** ** ** **

Chorus
e|--------------------------------------------------------------------------|
B|--------------------------------------------------------------------------|
G|-5---77779999------------5---777777777------------------------------------|
D|-555577779999---x3-------5555777777777------------------------------------|
A|-355555557777------------3555555555555------------------------------------|
E|--333-------------------- 333---------------------------------------------|
                             ***********
Repeat 2nd part of intro
Repeat verse
Repeat chorus

Bridge
e|--------------------------------------------------------------------------|
B|--------------------------------------------------------------------------|
G|----754-------------------------------------------------------------------|
D|-55-754-2222--77—x8-------------------------------------------------------|
A|-55-532-2222--77----------------------------------------------------------|
E|-33-----0000--55----------------------------------------------------------|

e|--------------------------------------------------------------------------|
B|--------------------------------------------------------------------------|
G|-55-9--------9-7-5--------------------------------------------------------|
D|-55-9-5—x8---9-7-5--------------------------------------------------------|
A|-33-7-5------7-5-3--------------------------------------------------------|
E|------3-------------------------------------------------------------------|

e|--------------------------------------------------------------------------|
B|--------------------------------------------------------------------------|
G|--------------------------------------------------------------------------|
D|-----------------------------------0--------------------------------------|
A|-----2-2----0000------2-2----023--------2-2----0000---2232----------------|
E|--3-3----0-0------3-3----0-0--------3-3----0-0------33------320-----------|

Chorus
e|--------------------------------------------------------------------------|
B|--------------------------------------------------------------------------|
G|-5---77779999------------5---777777777------------------------------------|
D|-555577779999---x3-------5555777777777------------------------------------|
A|-355555557777------------3555555555555------------------------------------|
E|--333---------------------333---------------------------------------------|

e|--------------------------------------------------------------------------|
B|--------------------------------------------------------------------------|
G|-5---77779999------------5---777777777----7-7-----------------------------|
D|-555577779999---x3-------5555777777777----7-7-----------------------------|
A|-355555557777------------3555555555555----5-5-----------------------------|
E|--333---------------------333---------------------------------------------|

e|----------------------------------------------------------------------------|
B|----------------------------------------------------------------------------|
G|------------------------7-----------55-4------------------------------------|
D|-55555---55555------55555----5-5-5--55-4---5--------------------------------|
A|-55555---55555------55555----5-5-5--33-2---5--------------------------------|
E|-33333---33333------3333-----3-3-3---------3--------------------------------|
Добавлено: 29.02.2012
Другие материалы по этой песне:
  • Аккорды и текст

Страница создана 29.02.2012
http://primanota.ru/boink/rockstar-tomorrow-chords.htm
Привет, Гость.
Предлагаем пройти революционный курс по гитаре.
Подарок от PrimaNota.Ru, забирай!