PrimaNota.ru - самый крупный в мире бесплатный архив песенных текстов, аккордов, табулатур и нот


Boikot - Tierra Quemada - таба, видео

Регистрация Запомнить меня
Войти через:  Facebook Google Twitter Vk Yandex Mail.ru

Boikot - Tierra Quemada - таба, видео

Печатать
Просмотров: 168
Уроки эстрадного вокала в Санкт-Петербурге
Song: Tierra quemada
Artist: Boikot
Tabbed by: Daniel Ortega Monge/San José, Costa Rica
Tuning: standard


Great song of boikot, I saw some tabs of this song but I made one better, so, I 
didn't made all this tab.
If you wanna say something about this tab e-mail me to dom030891@hotmail.com 
Intro:

E.--------------------------------------------4---6-6---4---6-6--||
B.--------------------------------------------4---8-6---4---8-6--||
G.--------------------------------------------5---8-7---5---8-7--||
D.----------------5-------5-------5--------5--6---8-8---6---8-8--||
A.------------6--------6-------6--------6-----6---6-8---6---6-8--||
E.---------8--------7-------6--------5--------4---6-6---4---6-6--||
              'Ganas de llorar…                        ”aqui todo…”


  with distortion                         ______________________repeat 2 times.___________________
E.---------------------------------------|---------------------------------------------------------|
B.---------------------------------------|---------------------------------------------------------|
G.-------------------------------8-------|---------------------------------------8-8--8------------|
D.-9-9-9-9-9-9-10--6--5--5---10--8--6--8-|10-10--10-6-6--6-5-5--5-5-5--10-10--10-8-8--8-6-6--6-8-8-|
A.-9-9-9-9-9-9-10--6--5--5---10--6--6--8-|10-10--10-6-6--6-5-5--5-5-5--10-10--10-6-6--6-6-6--6-8-8-|
E.-7-7-7-7-7-7-8---4--3--3---8------4--6-|8--8---8--4-4--4-3-3--3-3-3--8--8---8---------4-4--4-6-6-|
   __fast_


                                                        ,   ,                    ,   ,
E.-------------------------------------------------------------------------------------------------|
B.-------------------------------------------------------------------------------------------------|
G.---------------------------------8_---10--12--13--15--13--12---10--12--13--15--13----------------|
D.---10_--6_--5_--5_--10_--8_--6_--8_---10--12--13--15--13--12---10--12--13--15--13----------------|
A.---10_--6_--5_--5_--10_--6_--6_--8_---8---10--11--13--11--10---8---10--11--13--11----------------|
E.---8-_--4_--3_--3_--8-_------4_--6_--------------------------------------------------------------|

                                   _________________________ repeat 2 times._______________________
E.---------------------------4-----6--------------------------------------------------------------||
B.---------------------------4-----6--------------------------------------------------------------||
G.---------------------------5-----7--------------------------------------------------------------||
D.---------------------------6-----8----------5-5--5-5-5--5-5-5--5-5-5--5-6_-6-6-6_-8-8-8-8-8-8-8-||
A.---------------------------x-----x----------5-5--5-5-5--5-5-5--5-5-5--5-6_-6-6-6_-8-8-8-8-8-8-8-||
E.---------------------------x-----x--2-4-5-4-3-3--3-3-3--3-3-3--3-3-3--3-4_-4-4-4_-6-6-6-6-6-6-6-||
  “…Voy a montar, un comando...”


E.||----------||
B.||----------||
G.||----------||
D.||--5-------||
A.||----8-6---||
E.||----------||


                                      _______________________ repeat 2 times.____________________
E.-----------------------------------|-----------------------------------------------------------|
B.-----------------------------------|-----------------------------------------------------------|
G.-------------------------8_--------|-----------------------------------------8-8--8------------|
D.---10_--6_--5_--5_--10_--8_--6_--8_|--10-10--10-6-6--6-5-5--5-5-5--10-10--10-8-8--8-6-6--6-8-8-|
A.---10_--6_--5_--5_--10_--6_--6_--8_|--10-10--10-6-6--6-5-5--5-5-5--10-10--10-6-6--6-6-6--6-8-8-|
E.---8-_--4_--3_--3_--8-_------4_--6_|--8--8---8--4-4--4-3-3--3-3-3--8--8---8---------4-4--4-6-6-|



             ,   ,                    ,   ,
E.------------------------------------------------||
B.------------------------------------------------||
G.---10--12--13--15--13--12---10--12--13--15--13--||
D.---10--12--13--15--13--12---10--12--13--15--13--||
A.---8---10--11--13--11--10---8---10--11--13--11--||
E.------------------------------------------------||

                                  _________________________ repeat 2 times._______________________
E.---------------------------4-----6--------------------------------------------------------------||
B.---------------------------4-----6--------------------------------------------------------------||
G.---------------------------5-----7--------------------------------------------------------------||
D.---------------------------6-----8----------5-5--5-5-5--5-5-5--5-5-5--5-6_-6-6-6_-8-8-8-8-8-8-8-||
A.---------------------------x-----x----------5-5--5-5-5--5-5-5--5-5-5--5-6_-6-6-6_-8-8-8-8-8-8-8-||
E.---------------------------x-----x--2-4-5-4-3-3--3-3-3--3-3-3--3-3-3--3-4_-4-4-4_-6-6-6-6-6-6-6-||
“...Voy a montar, un comando...”

Solo1.


E.---------------------------------------------------------------------------------||
B.------------------------------13-15-16-15-------12-13-12-------------------------||
G.---12-12-12-13-12-10-12-12-12-------------12-13----------13-12-12-13-12----------||
D.---------------------------------------------------------------------------------||
A.---------------------------------------------------------------------------------||
E.---------------------------------------------------------------------------------||



E.--------------------------------------------4---6-6---4---6-6--||
B.--------------------------------------------4---8-6---4---8-6--||
G.--------------------------------------------5---8-7---5---8-7--||
D.----------------5-------5-------5--------5--6---8-8---6---8-8--||
A.------------6--------6-------6--------6-----6---6-8---6---6-8--||
E.---------8--------7-------6--------5--------4---6-6---4---6-6--||


  ___________repeat 2 times.__________
E.---------------------------------------|
B.---------------------------------------|
G.---------------------------------------|
D.---10-10--6-6--8-8--10-10--12-12--6-6--|
A.---10-10--6-6--8-8--10-10--12-12--6-6--|
E.---8--8---4-4--6-6--8--8---10-10--4-4--|

                                     ___________________repeat 2 times.__________________________
E.-----------------|---------4-----6--------------------------------------------------------------||
B.-----------------|---------4-----6--------------------------------------------------------------||
G.-----------------|---------5-----7--------------------------------------------------------------||
D.5--4-5-6--5-6-8--|---------6-----8----------5-5--5-5-5--5-5-5--5-5-5--5-6_-6-6-6_-8-8-8-8-8-8-8-||
A.5--4-5-6--5-6-8--|---------x-----x----------5-5--5-5-5--5-5-5--5-5-5--5-6_-6-6-6_-8-8-8-8-8-8-8-||
E.3--2-3-4--3-4-6--|---------x-----x--2-4-5-4-3-3--3-3-3--3-3-3--3-3-3--3-4_-4-4-4_-6-6-6-6-6-6-6-||
                 'Voy a montar,...'

SOLO2. 3 times.             


E.--------------------------||-------------------------------------------------------|
B.-----7----------5---------||-------------6-8-6-------------------------------------|
G.---7---7-7-9--6---6-7-4---||---5-7-8-7-8-------8-7-5-------------------------------|
D.--------------------------||-------------------------------------------------------|
A.--------------------------||-------------------------------------------------------|
E.--------------------------||-------------------------------------------------------|


Ganas de llorar, aqui todo es igual 
mil guerras he perdido ya 
me pueden reventar 
me vuelvo a levantar 
triestes caras se cruzan en prision 
nadie tiene piedad con el perdedor 
hoy tengo ganas de reir de volar 
y ser feliz de tenerte junto a mi 
las cadenas son muy fuertes 
pero puedo soportar 
me han condenado a muerte 
por buscar tu libertad 
puede que no vuelva a verte 
y de frente morire 
guerra y odio, esto es lo que han sembrado 
muerte y guerra y es que hoy por ti voy a montar ...... 
un comando oraganizado armado 
de ideas cargadas de revolucion ... 
voy a montar ...... 
un comando oraganizado armado 
de ideas cargadas de revolucion ... 
yo solo veo tierra quemada 
en la tierra del señor 
han cunstruido las iglesias 
del miedo y el rencor 
odio y muerte, esto es lo que han sembrado 
muerte y guerra y es que hoy por ti voy a montar ...... 
un comando oraganizado armado 
de ideas cargadas de revolucion ... 
voy a montar ...... 
un comando oraganizado armado 
de ideas cargadas de revolucion ... 
Hoy tengo ganas de reir 
de volar y ser feliz, 
de tenerte junto a mi 
yo solo veo tierra quemada 
en la tierra del señor 
han construido las iglesias 
del miedo y el rencor 
el vino esta podrido en la viña del señor 
y los siervos se han revelado contra el opresor. 
voy a montar ...... 
un comando oraganizado armado 
de ideas cargadas de revolucion ... 
voy a montar ...... 
un comando oraganizado armado 
de ideas cargadas de revolucion ... 
voy a montar ...... 
un comando....un comando....un comando....

Добавлено: 30.06.2012
Другие материалы по этой песне:

Страница создана 02.06.2012
http://primanota.ru/boikot/tierra-quemada-chords.htm
Привет, Гость.
Предлагаем пройти революционный курс по гитаре.
Подарок от PrimaNota.Ru, забирай!