PrimaNota.ru - самый крупный в мире бесплатный архив песенных текстов, аккордов, табулатур и нот


Bohse Onkelz - Keine Amnestie Fuer Mtv - аккорды и текст, видео

Регистрация Запомнить меня
Войти через:  Facebook Google Twitter Vk Yandex Mail.ru

Bohse Onkelz - Keine Amnestie Fuer Mtv - аккорды и текст, видео

Печатать
Просмотров: 91
Keine Amnestie Fuer Mtv
Bohse Onkelz
Original is played with Half-Step Down tuning

always Powerchords (except Bridge)


Intro:
F#m | F#m  |*1
F#m | D  B |*2
F#m | F#m  |*1
F#m | D  B |*2

F#m | E  D |*3
F#m | E  D |


Verse:
         F#m                     E               D
Die Industrie und ihre Helfer verkaufen Euch für Dumm
F#m                   E                  D
Sie servieren und ihr rührt die Scheisse um
F#m                          E           D
Ich brauch sie nicht und ich hab sie nie gebraucht
    F#m                         E              D
Ich scheiss auf MTV und auf die anderen Sender auch


Refrain:
F#m                              D             E
Ich und meine Brüder haben das Kriegsbeil ausgegraben
    F#m                            D         E
Wir können es uns leisten Euch als Feinde zu haben
F#m                           D           E
Feige und bestechlich und für das was sie sagen nicht 
  F#m           D          E
bereit die Konsequenzen zu tragen



        F#m                D B        
Deshalb keine Amnestie für MTV
F#m                  D B
keine Amnestie für MTV


Verse:
F#m                                    E                 D
Ich zeigte euch die Wahrheit doch die Wahreit macht euch Angst
              F#m                  E       D
Angst vor der eigenen Courage oder einfach Arroganz
        F#m                 E         D
Auf der Suche nach Geld und dessen Trophäen
F#m                                   E             D
fickt Ihr Euch Durchs Leben und fickt die, die euch sehen


Refrain:
F#m                              D             E
Ich und meine Brüder haben das Kriegsbeil ausgegraben
    F#m                            D         E
Wir können es uns leisten Euch als Feinde zu haben
F#m                           D           E
Feige und bestechlich und für das was sie sagen nicht 
  F#m           D          E
bereit die Konsequenzen zu tragen


Bridge:
    F#m
Ich bin nicht euer Opfer
D            
ich bin euer Feind
         F#m                 D     
und ich hasse euer doof-naive Beliebigkeit 
GONZO!


Solo.....



F#m                              D             E
Ich und meine Brüder haben das Kriegsbeil ausgegraben
    F#m                            D         E
Wir können es uns leisten Euch als Feinde zu haben
F#m                           D           E
Feige und bestechlich und für das was sie sagen nicht 
  F#m           D          E
bereit die Konsequenzen zu tragen


       (F#m)               D B        
Deshalb keine Amnestie für MTV
F#m                  D B
keine Amnestie für MTV


F#m               (D)(B)      (The Chords in brackets are not played)  
keine Amnestie für MTV
F#m                  D B
keine Amnestie für MTV

      F#m
Für MTV!


*1 begin with:

  F#m
e|---------------------------------------------------------------------|
B|---------------------------------------------------------------------|
G|---------------------------------------------------------------------|
D|---------------------------------------------------------------------|
A|---------------------------------------------------------------------|
E|-2-2-2-2-2---2-2---2-2-2-2-2-2---------------------------------------|
   ^ v ^ v ^   ^ v   v ^ v ^ v ^ 

^= downstroke
v= upstroke

(for 6 Bars) 

*2 then:

    F#m      D   B
e|----------------------------------------------------------------------|
B|----------------------------------------------------------------------|
G|-----------7---4------------------------------------------------------|
D|---4-------7---4------------------------------------------------------|
A|---4-------5---2------------------------------------------------------|
E|---2------------------------------------------------------------------|


*3 play the chords like this 



       F#m                          D           B
e|----------------------------------------------------------------------|
B|----------------------------------------------------------------------|
G|----------------------------------7-7-7-7-----4-4-4-4-----------------|
D|------4-4-4-4-4-----4-4-4-4-4-----7-7-7-7-----4-4-4-4-----------------|
A|------4-4-4-4-4-----4-4-4-4-4-----5-5-5-5-----2-2-2-2-----------------|
E|----0h2-2-2-2-2---0h2-2-2-2-2-----------------------------------------|



Verse:
    F#m               E              D
e|----------------------------------------------------------------------|
B|----------------------------------------------------------------------|
G|--------------------9-9-9-9-9-9----7-7-7-7-7-7------------------------|
D|--4-4-4-4-4---4-4---9-9-9-9-9-9----7-7-7-7-7-7------------------------|
A|--4-4-4-4-4---4-4---7-7-7-7-7-7----5-5-5-5-5-5------------------------|
E|--2-2-2-2-2---2-2-----------------------------------------------------|
      p.m....  |  


p.m.= palm mute (mute the strings with your right hand) 



that's all i can give you for this song
i'm pretty sure about the chords 
for the tabs you have to get your own feeling
Добавлено: 30.10.2013
Другие материалы по этой песне:

Страница создана 20.03.2012
http://primanota.ru/bohse-onkelz/keine-amnestie-fuer-mtv-chords.htm
Привет, Гость.
Предлагаем пройти революционный курс по гитаре.
Подарок от PrimaNota.Ru, забирай!