PrimaNota.ru - самый крупный в мире бесплатный архив песенных текстов, аккордов, табулатур и нот


Bohse Onkelz - Ich Bin In Dir - аккорды и текст, видео

Регистрация Запомнить меня
Войти через:  Facebook Google Twitter Vk Yandex Mail.ru

Bohse Onkelz - Ich Bin In Dir - аккорды и текст, видео

Печатать
Просмотров: 162
Ich Bin In Dir
Bohse Onkelz
Ich bin in dir

Intro: x4
Guitar 1:
E|---------------------------------------|
B|---------------------------------------|
G|-----11-----11-----11-----11-----11-11-|
D|-9-9----9-9----9-9----9-9----9-9-------|
A|---------------------------------------|
E|---------------------------------------|

Guitar 2:
E|---------------------------------|
B|---------------------------------|
G|---------------------------------|
D|-2-2-2-2-2-2-2-2-5-5-5-5-4-4-4-4-|
A|-2-2-2-2-2-2-2-2-5-5-5-5-4-4-4-4-|
E|-0-0-0-0-0-0-0-0-3-3-3-3-2-2-2-2-|


Strophe:
E|---------------------------------|
B|---------------------------------|
G|---------------------------------|
D|-2-2------------5-5------4-4-----|
A|-2-2------------5-5------4-4-----|
E|-0-0------------3-3------2-2-----|
      Hörst du diese Lieder ?

E|---------------------------------|
B|---------------------------------|
G|---------------------------------|
D|-2-2------------5-5------4-4-----|
A|-2-2------------5-5------4-4-----|
E|-0-0------------3-3------2-2-----|
       Böhse Onkelz immer wieder

E|---------------------------------|
B|---------------------------------|
G|---------------------------------|
D|-2-2-2-2-2-2-2-2-5-5-5-5-4-4-4-4-|
A|-2-2-2-2-2-2-2-2-5-5-5-5-4-4-4-4-|
E|-0-0-0-0-0-0-0-0-3-3-3-3-2-2-2-2-|
  Sie sind ein Teil von meinem Leben

E|---------------------------------|
B|---------------------------------|
G|---------------------------------|
D|-2-2------------5-5------4-4-----|
A|-2-2------------5-5------4-4-----|
E|-0-0------------3-3------2-2-----|

E|---------------------------------|
B|---------------------------------|
G|---------------------------------|
D|-2-2------------5-5------4-4-----|
A|-2-2------------5-5------4-4-----|
E|-0-0------------3-3------2-2-----|
      Sie sind ein Teil von mir

E|---------------------------------|
B|---------------------------------|
G|---------------------------------|
D|-2-2------------5-5------4-4-----|
A|-2-2------------5-5------4-4-----|
E|-0-0------------3-3------2-2-----|
 Sie sind für dich ich schenk sie dir

E|---------------------------------|
B|---------------------------------|
G|---------------------------------|
D|-2-2-2-2-2-2-2-2-5-5-5-5-4-4-4-4-|
A|-2-2-2-2-2-2-2-2-5-5-5-5-4-4-4-4-|
E|-0-0-0-0-0-0-0-0-3-3-3-3-2-2-2-2-|
 Mehr kann und will ich dir nicht geben

E|---------------------------------|
B|---------------------------------|
G|---------------------------------|
D|-2-2------------5-5------4-4-----|
A|-2-2------------5-5------4-4-----|
E|-0-0------------3-3------2-2-----|

Chorus:
E|-----------------------------------------------------------------|
B|-----------------------------------------------------------------|
G|-9-9-9-9-9-9-9-9-7-7-7-7-7-7-7-7-5-5-5-5-7-7-7-7-9-9-9-9-9-9-9-9-|
D|-9-9-9-9-9-9-9-9-7-7-7-7-7-7-7-7-5-5-5-5-7-7-7-7-9-9-9-9-9-9-9-9-|
A|-7-7-7-7-7-7-7-7-5-5-5-5-5-5-5-5-3-3-3-3-5-5-5-5-7-7-7-7-7-7-7-7-|
E|-----------------------------------------------------------------|
  Weiß du wirklich wer ich bin , wie ich denke wie ich fühle ?

E|-----------------------------------------------------------------|
B|-----------------------------------------------------------------|
G|-9-9-9-9-9-9-9-9-7-7-7-7-7-7-7-7-5-5-5-5-7-7-7-7-9-9-9-9-9-9-9-9-|
D|-9-9-9-9-9-9-9-9-7-7-7-7-7-7-7-7-5-5-5-5-7-7-7-7-9-9-9-9-9-9-9-9-|
A|-7-7-7-7-7-7-7-7-5-5-5-5-5-5-5-5-3-3-3-3-5-5-5-5-7-7-7-7-7-7-7-7-|
E|-----------------------------------------------------------------|
  Liebst du mich weil ich es bin oder weil ich dich belüge?

E|----------------------------|  
B|----------------------------|
G|-5-5-5-5-4-4-4-4------------|
D|-5-5-5-5-4-4-4-4-5-5-4-4-2--|
A|-3-3-3-3-2-2-2-2-5-5-4-4-2--|
E|-----------------3-3-2-2-0--|
Du bist in mir wohin ich geh

E|----------------------------|  
B|----------------------------|
G|-5-5-5-5-4-4-4-4------------|
D|-5-5-5-5-4-4-4-4-5-5-4-4-2--|
A|-3-3-3-3-2-2-2-2-5-5-4-4-2--|
E|-----------------3-3-2-2-0--|
Doch siehst du auch das was ich seh ?


Intro: x2
Guitar 1:
E|---------------------------------------|
B|---------------------------------------|
G|-----11-----11-----11-----11-----11-11-|
D|-9-9----9-9----9-9----9-9----9-9-------|
A|---------------------------------------|
E|---------------------------------------|

Guitar 2:
E|---------------------------------|
B|---------------------------------|
G|---------------------------------|
D|-2-2-2-2-2-2-2-2-5-5-5-5-4-4-4-4-|
A|-2-2-2-2-2-2-2-2-5-5-5-5-4-4-4-4-|
E|-0-0-0-0-0-0-0-0-3-3-3-3-2-2-2-2-|



Strophe:
E|---------------------------------|
B|---------------------------------|
G|---------------------------------|
D|-2-2------------5-5------4-4-----|
A|-2-2------------5-5------4-4-----|
E|-0-0------------3-3------2-2-----|
     Ich seh mich an und frag mich

E|---------------------------------|
B|---------------------------------|
G|---------------------------------|
D|-2-2------------5-5------4-4-----|
A|-2-2------------5-5------4-4-----|
E|-0-0------------3-3------2-2-----|
     Ich seh mich an und frag mich ,warum ?

E|---------------------------------|
B|---------------------------------|
G|---------------------------------|
D|-2-2-2-2-2-2-2-2-5-5-5-5-4-4-4-4-|
A|-2-2-2-2-2-2-2-2-5-5-5-5-4-4-4-4-|
E|-0-0-0-0-0-0-0-0-3-3-3-3-2-2-2-2-|
  Warum bin ich wie ich bin ?

E|---------------------------------|
B|---------------------------------|
G|---------------------------------|
D|-2-2------------5-5------4-4-----|
A|-2-2------------5-5------4-4-----|
E|-0-0------------3-3------2-2-----|

E|---------------------------------|
B|---------------------------------|
G|---------------------------------|
D|-2-2------------5-5------4-4-----|
A|-2-2------------5-5------4-4-----|
E|-0-0------------3-3------2-2-----|
  Warum lach ich wenn ich traurig bin ?

E|---------------------------------|
B|---------------------------------|
G|---------------------------------|
D|-2-2------------5-5------4-4-----|
A|-2-2------------5-5------4-4-----|
E|-0-0------------3-3------2-2-----|
 Kann ich sehen oder bin ich blind ?

E|---------------------------------|
B|---------------------------------|
G|---------------------------------|
D|-2-2-2-2-2-2-2-2-5-5-5-5-4-4-4-4-|
A|-2-2-2-2-2-2-2-2-5-5-5-5-4-4-4-4-|
E|-0-0-0-0-0-0-0-0-3-3-3-3-2-2-2-2-|
 ich such die Antwort auf meine Fragen

E|---------------------------------|
B|---------------------------------|
G|---------------------------------|
D|-2-2------------5-5------4-4-----|
A|-2-2------------5-5------4-4-----|
E|-0-0------------3-3------2-2-----|

Chorus:
E|-----------------------------------------------------------------|
B|-----------------------------------------------------------------|
G|-9-9-9-9-9-9-9-9-7-7-7-7-7-7-7-7-5-5-5-5-7-7-7-7-9-9-9-9-9-9-9-9-|
D|-9-9-9-9-9-9-9-9-7-7-7-7-7-7-7-7-5-5-5-5-7-7-7-7-9-9-9-9-9-9-9-9-|
A|-7-7-7-7-7-7-7-7-5-5-5-5-5-5-5-5-3-3-3-3-5-5-5-5-7-7-7-7-7-7-7-7-|
E|-----------------------------------------------------------------|
  Die Gedanken malen Bilder doch ich finde keine Rahmen

E|-----------------------------------------------------------------|
B|-----------------------------------------------------------------|
G|-9-9-9-9-9-9-9-9-7-7-7-7-7-7-7-7-5-5-5-5-7-7-7-7-9-9-9-9-9-9-9-9-|
D|-9-9-9-9-9-9-9-9-7-7-7-7-7-7-7-7-5-5-5-5-7-7-7-7-9-9-9-9-9-9-9-9-|
A|-7-7-7-7-7-7-7-7-5-5-5-5-5-5-5-5-3-3-3-3-5-5-5-5-7-7-7-7-7-7-7-7-|
E|-----------------------------------------------------------------|
  Der Wind spricht zu mir wünscht mir Glück er flüstert meinen Namen

E|----------------------------|  
B|----------------------------|
G|-5-5-5-5-4-4-4-4------------|
D|-5-5-5-5-4-4-4-4-5-5-4-4-2--|
A|-3-3-3-3-2-2-2-2-5-5-4-4-2--|
E|-----------------3-3-2-2-0--|
Er sagt: Ich bin in dir wohin du gehst

E|----------------------------|  
B|----------------------------|
G|-5-5-5-5-4-4-4-4------------|
D|-5-5-5-5-4-4-4-4-5-5-4-4-2--|
A|-3-3-3-3-2-2-2-2-5-5-4-4-2--|
E|-----------------3-3-2-2-0--|
Doch siehst du auch das was ich seh ?


E|---------------------------------|
B|---------------------------------|
G|---------------------------------|
D|-----2-2-----2-2-----2-2-----2-2-|
A|-2-2-2-2-2-2-2-2-2-2-2-2-2-2-2-2-|
E|-0-0-0-0-0-0-0-0-0-0-0-0-0-0-0-0-|


Solo:
Guitar 1:
E|-----------------------------|
B|-----------------------------|
G|--9-------11----12--11---14--|
D|--0--------0-----0---0----0--|
A|--7--------9----10---9---12--|
E|-----------------------------|

Guitar 2:
E|---------------------------------|
B|---------------------------------|
G|---------------------------------|
D|-2-2------------5-5------4-4-----|
A|-2-2------------5-5------4-4-----|
E|-0-0------------3-3------2-2-----|

Guitar 1:
E|-12---------------------------------|
B|----15-12---------------------------|
G|---------14-12-14-12----12-14-12----|
D|---------------------14----------14-|
A|------------------------------------|
E|------------------------------------|

Guitar 2:
E|---------------------------------|
B|---------------------------------|
G|---------------------------------|
D|-2-2------------5-5------4-4-----|
A|-2-2------------5-5------4-4-----|
E|-0-0------------3-3------2-2-----|

Guitar 1:
E|-----------------------------|
B|-----------------------------|
G|--9-------11----12--11---16--|
D|--0--------0-----0---0----0--|
A|--7--------9----10---9---14--|
E|-----------------------------|

Guitar 2:
E|---------------------------------|
B|---------------------------------|
G|---------------------------------|
D|-2-2------------5-5------4-4-----|
A|-2-2------------5-5------4-4-----|
E|-0-0------------3-3------2-2-----|

Guitar 1:
E|-12----------------------------|
B|----15-12-15-12----------------|
G|----------------14-12-12-14-14-|
D|-------------------------------|
A|-------------------------------|
E|-------------------------------|

Guitar 2:
E|---------------------------------|
B|---------------------------------|
G|---------------------------------|
D|-2-2------------5-5------4-4-----|
A|-2-2------------5-5------4-4-----|
E|-0-0------------3-3------2-2-----|

Guitar 1:
E|---------------------------------|
B|-5-5-5-7-7-7-8-8-3-3-3-5---------|
G|---------------------------------|
D|---------------------------------|
A|---------------------------------|
E|---------------------------------|

Guitar 2:
E|---------------------------------|
B|---------------------------------|
G|---------------------------------|
D|-2-2-2-2-2-2-2-2-5-5-5-5-4-4-4-4-|
A|-2-2-2-2-2-2-2-2-5-5-5-5-4-4-4-4-|
E|-0-0-0-0-0-0-0-0-3-3-3-3-2-2-2-2-|

Guitar 1:
E|--------------------------------------------------------------|
B|-17-15----17-15----12-10----12-10---10-8---10-8---5-3---5-3---|
G|-------16-------16-------12-------12-----9------9-----4-----4-|
D|--------------------------------------------------------------|
A|--------------------------------------------------------------|
E|--------------------------------------------------------------|

Guitar 2:
E|--------------------------------------------------------------|
B|--------------------------------------------------------------|
G|--------------------------------------------------------------|
D|-2-2--------------------------------5-5-----------4-4---------|
A|-2-2--------------------------------5-5-----------4-4---------|
E|-0-0--------------------------------3-3-----------2-2---------|

Guitar 1:
E|---------------------------------|
B|-5-5-5-7-7-7-8-8-3-3-3-5---------|
G|---------------------------------|
D|---------------------------------|
A|---------------------------------|
E|---------------------------------|

Guitar 2:
E|---------------------------------|
B|---------------------------------|
G|---------------------------------|
D|-2-2-2-2-2-2-2-2-5-5-5-5-4-4-4-4-|
A|-2-2-2-2-2-2-2-2-5-5-5-5-4-4-4-4-|
E|-0-0-0-0-0-0-0-0-3-3-3-3-2-2-2-2-|

Guitar 1:
E|-0-------------------------------|
B|---3-0---------------------------|
G|-------2-0---0-2/3-3-3-2-3-2-3-2-|
D|-----------2---------------------|
A|---------------------------------|
E|---------------------------------|

Guitar 2:
E|---------------------------------|
B|---------------------------------|
G|---------------------------------|
D|-2-2------------5-5------4-4-----|
A|-2-2------------5-5------4-4-----|
E|-0-0------------3-3------2-2-----|


Chorus:
E|-----------------------------------------------------------------|
B|-----------------------------------------------------------------|
G|-9-9-9-9-9-9-9-9-7-7-7-7-7-7-7-7-5-5-5-5-7-7-7-7-9-9-9-9-9-9-9-9-|
D|-9-9-9-9-9-9-9-9-7-7-7-7-7-7-7-7-5-5-5-5-7-7-7-7-9-9-9-9-9-9-9-9-|
A|-7-7-7-7-7-7-7-7-5-5-5-5-5-5-5-5-3-3-3-3-5-5-5-5-7-7-7-7-7-7-7-7-|
E|-----------------------------------------------------------------|
  Die Gedanken malen Bilder doch ich finde keine Rahmen

E|-----------------------------------------------------------------|
B|-----------------------------------------------------------------|
G|-9-9-9-9-9-9-9-9-7-7-7-7-7-7-7-7-5-5-5-5-7-7-7-7-9-9-9-9-9-9-9-9-|
D|-9-9-9-9-9-9-9-9-7-7-7-7-7-7-7-7-5-5-5-5-7-7-7-7-9-9-9-9-9-9-9-9-|
A|-7-7-7-7-7-7-7-7-5-5-5-5-5-5-5-5-3-3-3-3-5-5-5-5-7-7-7-7-7-7-7-7-|
E|-----------------------------------------------------------------|
  Der Wind spricht zu mir wünscht mir Glück er flüstert meinen Namen

E|----------------------------|  
B|----------------------------|
G|-5-5-5-5-4-4-4-4------------|
D|-5-5-5-5-4-4-4-4-5-5-4-4-2--|
A|-3-3-3-3-2-2-2-2-5-5-4-4-2--|
E|-----------------3-3-2-2-0--|
Er sagt: Ich bin in dir wohin du gehst

E|----------------------------|  
B|----------------------------|
G|-5-5-5-5-4-4-4-4------------|
D|-5-5-5-5-4-4-4-4-5-5-4-4-2--|
A|-3-3-3-3-2-2-2-2-5-5-4-4-2--|
E|-----------------3-3-2-2-0--|
Doch siehst du auch das was ich seh ?


E|---------------------------------|
B|---------------------------------|
G|---------------------------------|
D|-----2-2-----2-2-----2-2-----2-2-|
A|-2-2-2-2-2-2-2-2-2-2-2-2-2-2-2-2-|
E|-0-0-0-0-0-0-0-0-0-0-0-0-0-0-0-0-|

Outro:
E|---------0-----------------------|
B|-----------0---------------------|
G|-------0-----0-------------------|
D|-----2---------2-----0-------0---|
A|---2---------------0---0---0---0-|
E|-0---------------3-------2-------|
  Ich warte auf ein Zeichen

E|---------0-----------------------|
B|-----------0---------------------|
G|-------0-----0-------------------|
D|-----2---------2-----0-------0---|
A|---2---------------0---0---0---0-|
E|-0---------------3-------2-------|
  Ich warte auf ein Zeichen von dir

E|---------0-----------------------|
B|-----------0---------------------|
G|-------0-----0-------------------|
D|-----2---------2-----0-------0---|
A|---2---------------0---0---0---0-|
E|-0---------------3-------2-------|
  Ich such die Antwort auf meine Fragen

E|---------0-----------------------|
B|-----------0---------------------|
G|-------0-----0-------------------|
D|-----2---------2-----0-------0---|
A|---2---------------0---0---0---0-|
E|-0---------------3-------2-------|

E|---------------|
B|---------------|
G|---------------|
D|-----2-2-----2-|
A|-2-2-2-2-2-2-2-|
E|-0-0-0-0-0-0-0-|
Добавлено: 29.04.2012
Другие материалы по этой песне:

Страница создана 07.03.2012
http://primanota.ru/bohse-onkelz/ich-bin-in-dir-chords.htm
Привет, Гость.
Предлагаем пройти революционный курс по гитаре.
Подарок от PrimaNota.Ru, забирай!