PrimaNota.ru - самый крупный в мире бесплатный архив песенных текстов, аккордов, табулатур и нот


Bohse Onkelz - Buch Der Erinnerung - аккорды и текст, таба, видео

Регистрация Запомнить меня
Войти через:  Facebook Google Twitter Vk Yandex Mail.ru

Bohse Onkelz - Buch Der Erinnerung - аккорды и текст, таба, видео

Печатать
Просмотров: 200
Уроки эстрадного вокала в Санкт-Петербурге
Buch Der Erinnerung
Bohse Onkelz
		   Intro:
----------0----------0-
------2----------2-----
----2---2------2---2---
--0----------0---------
-----------------------
-----------------------

Übergang auf Verse

2x

------------------------
------------------------
-----------5-7-9--5-7-9-
-----------3-5-7--3-5-7-
-7--7-5-7---------------
-5--5-3-5---------------

2x

-------------------------------------
---------------------------------------
---------------------------------------
--------------------00-2-3-0-----------
-0-2-3-0--00-2-3-0---------------------
------------------------------00-3-4-0-

Übergang auf Chor

A - C - B - C - A

Chor
---------
---------
---------
---5-4-5-
-7-5-4-5-
-5-------     
Добавлено: 17.10.2013
Другие материалы по этой песне:

Страница создана 24.06.2012
http://primanota.ru/bohse-onkelz/buch-der-erinnerung-chords.htm
Привет, Гость.
Предлагаем пройти революционный курс по гитаре.
Подарок от PrimaNota.Ru, забирай!