PrimaNota.ru - самый крупный в мире бесплатный архив песенных текстов, аккордов, табулатур и нот


The Bohicas - Where You At - таба, видео

Регистрация Запомнить меня
Войти через:  Facebook Google Twitter Vk Yandex Mail.ru

The Bohicas - Where You At - таба, видео

Печатать
Просмотров: 80
THE BOHICAS - WHERE YOU AT

Tab by: Tijneliaa

(Tuning: standard)

Verse:

e|-------------------------------------
B|-------------------------------------
G|-------------------------------------
D|--7-7--5-5--5-5/-10-7-10-7-12-12-5-7-
A|-------------------------------------
E|--5-5--3-3--3-3/-8--8-8--8-10-10-3-7-

e|---------------------------------------
B|---------------------------------------
G|---------------------------------------
D|--7-7--5-5--5-5/-10-7-10-7-12-12-12-12-
A|---------------------------------------
E|--5-5--3-3--3-3/-8--8-8--8-10-10-10-10-

Bridge pt1.:

e|-----------------------------------
B|-----------------------------------
G|-----------------------------------
D|--7--7--5-7-7-7--5-7-7-5-7--10--12-
A|-----------------------------------
E|--5--5--5-5-5-5--5-5-5-5-5--8---10-

Bridge pt2.:

e|---------------------------------------------------
B|---------------------------------------------------
G|--------------------------------------9--9--9--9---
D|--10-10-10-10-10-10-10-10-10-10-10-10-10-10-10-10--
A|---------------------------------------------------
E|--8--8--8--8--8--8--8--8--8--8--8--8--8--8--8--8---

e|---------------------------------------------------
B|---------------------------------------------------
G|--------------------------------------11-11-11-11--
D|--12-12-12-12-12-12-12-12-12-12-12-12-12-12-12-12--
A|---------------------------------------------------
E|--10-10-10-10-10-10-10-10-10-10-10-10-10-10-10-10--

Chorus:

e|-------------------------------------------------------------------
B|-------------------------------------------------------------------
G|-------------------------------------------------------------------
D|--7-7-7-7-7-7-7-7-7-7-7-7-7-7-7-7-7-7-7-7-7-7-7-7-7-7-7-7-7-7-7-7--
A|-------------------------------------------------------------------
E|--5-5-5-5-5-5-5-5-5-5-5-5-5-5-5-5-5-5-5-5-5-5-5-5-5-5-5-5-5-5-5-5--


e|---------------------------------------------------
B|---------------------------------------------------
G|--------------------------------------9--9--9--9---
D|--10-10-10-10-10-10-10-10-10-10-10-10-10-10-10-10--
A|---------------------------------------------------
E|--8--8--8--8--8--8--8--8--8--8--8--8--8--8--8--8---

e|---------------------------------------------------
B|---------------------------------------------------
G|--------------------------------------11-11-11-11--
D|--12-12-12-12-12-12-12-12-12-12-12-12-12-12-12-12--
A|---------------------------------------------------
E|--10-10-10-10-10-10-10-10-10-10-10-10-10-10-10-10--



Verse (4x)
Bridge Pt1 (2x)
Verse (2x)
Bridge Pt1 (2x)
Bridge Pt2
Chorus
Verse (6x)
Bridge Pt2
Chorus
Verse (2x)
Solo (but verse continues)
Bridge Pt1 (2x)
Bridge Pt2
Chorus
Добавлено: 07.06.2016
Вам также может быть интересно:
Другие материалы по этой песне:
  • Аккорды и текст

Страница создана 07.06.2016
http://primanota.ru/bohicas/where-you-at-chords.htm
Привет, Гость.
Предлагаем пройти революционный курс по гитаре.
Подарок от PrimaNota.Ru, забирай!