PrimaNota.ru - самый крупный в мире бесплатный архив песенных текстов, аккордов, табулатур и нот


Bodyjar - Sequel - текст песни, таба, видео

Регистрация Запомнить меня
Войти через:  Facebook Google Twitter Vk Yandex Mail.ru

Bodyjar - Sequel - текст песни, таба, видео

Печатать
Просмотров: 164
Title: Sequel

Artist: Bodyjar

Album: No Touch Red (and other ones, like Jarchives)

Tuning: Standard (EADGBE)

Key:
/ = slide up
\ = slide down
* = let ring
. = palm mute
b = bend
h = hammer on
p = pull off
< > = pick fast
( ) = harmonic

Intro/Main Riff:

Guitar 1:

E|-----------------------|
B|-----------------------|
G|-----------------------|
D|-7-7-7-7 x-x-x-x-------|
A|-5-5-5-5-x-x-x-x-5-5-4-|
E|-----------------3-3-2-|

E|-----------------------------------|
B|-----------------------------------|
G|-----------------------------------|
D|-7-7-7-7 x-x-x-x-------------------|
A|-5-5-5-5-x-x-x-x-5-2-4---4-4-2-2-2-|
E|-----------------3-0-2---2-2-0-0-0-|
                           .   . 
Guitar 2 (comes in with):

E|-----------------------------------|
B|-----------------------------------|
G|-7-7-7-7*--------------------------|
D|-----------------------------------|
A|-5-5-5-5*----------------4-4-2-2-2-|
E|-------------------------2-2-0-0-0-|
                           .   .

Guitar 1 & 2 then play the main riff, replacing:

E|-------|      |-------|
B|-------|      |-------|
G|-------|      |-------|
D|-------| with |-------|
A|-5-2-4-|      |-5-7-4-|
E|-3-0-2-|      |-3-5-2-|

Next Bit:

Guitar 1:

E|--------------------------------------------------------------------|
B|--------------------------------------------------------------------|
G|-------------9-9h11-9-------------9-9-11-9-------------9-9h11-9-----|
D|-11-11-11-11----------11-11-11-11----------11-11-11-11--------------|
A|--9--9--9--9-----------9--9--9--9-----------9--9--9--9--------------|
E|--------------------------------------------------------------------|
                  

E|------------------------------------------|
B|------------------------------------------|
G|-14-14-14-14--14-14-14-13-13-13--13-13-13-|
D|------------------------------------------|
A|-12-12-12-12--12-12-12-11-11-11--11-11-11-|
E|------------------------------------------|

Guitar 2 is basically Guitar 1, but without the solo bits

And Then:

E|--------------------------------------------------------|
B|--------------------------------------------------------|
G|-------------9-9h11-9---------9-9-11-9---------9-9h11-9-|
D|-11-11-11-11----------7-7-7-7----------9-9-9-9----------| x2
A|--9--9--9--9----------5-5-5-5----------7-7-7-7----------|
E|--------------------------------------------------------|

Verse:

Guitar 1 & 2:

E|----------------------------------------------------|
B|----------------------------------------------------|
G|----------------------------------------------------|
D|----------------------------------------------------|
A|-7-7-7-7--7-7-7-7-7-7-7-7-7--7-7-7-7--7-7-7-7-7-7-7-|
E|-5-5-5-5--5-5-5-5-5-5-5-5-5--4-4-4-4--4-4-4-4-4-4-4-|

E|------------------------------------------------------|
B|------------------------------------------------------|
G|------------------------------------------------------|
D|-7-7-7-7--7-7-7-7-7-7-7-7--7-7-7-7--7-7-7-7-7-7-7-7-7-|
A|-5-5-5-5--5-5-5-5-5-5-5-5--5-5-5-5--5-5-5-5-5-5-5-5-5-|
E|------------------------------------------------------|


E|------------------------------------------|
B|------------------------------------------|
G|------------------------------------------|
D|------------------------------------------|
A|-4-4--4-4--4-4--4-4--2-2--2-2--2-2--2-2-2-|
E|-2-2--2-2--2-2--2-2--0-0--0-0--0-0--0-0-0-|
        . .       . .       . .      

Guitar 1:

E|--------------------------------------------|
B|--------------------------------------------|
G|-11--11-11-11-11-11-11--14--14-14-13--13-13-|
D|--------------------------------------------|
A|--9---9--9--9--9--9--9--12--12-12-11--11-11-|
E|--------------------------------------------|

E|-------------------------------------|
B|-------------------------------------|
G|-7--7-7-7-7-7-7--14--14-14-13--13-13-|
D|-------------------------------------|
A|-5--5-5-5-5-5-5--12--12-12-11--11-11-|
E|-------------------------------------|

Guitar 2:

E|-------------------------------|
B|-------------------------------|
G|--7-7-7-7-7-7-7-11-11-11-9-9-9-|
D|-------------------------------|
A|--5-5-5-5-5-5-5--9--9--9-7-7-7-|
E|-------------------------------|

E|-------------------------------|
B|-------------------------------|
G|--7-7-7-7-7-7-7-11-11-11-9-9-9-|
D|-------------------------------|
A|--5-5-5-5-5-5-5--9--9--9-7-7-7-|
E|-------------------------------|

Guitar 1 & 2:

E|-----------------------|
B|-----------------------|
G|-----------------------|
D|-7-7-7-7 x-x-x-x-------|
A|-5-5-5-5-x-x-x-x-5-5-4-|
E|-----------------3-3-2-|

E|-----------------------------------|
B|-----------------------------------|
G|-----------------------------------|
D|-7-7-7-7 x-x-x-x-------------------|
A|-5-5-5-5-x-x-x-x-5-7-4---4-4-2-2-2-|
E|-----------------3-5-2---2-2-0-0-0-|
                           .   . 

Chorus:

E|----------------------------------------------------------------|
B|----------------------------------------------------------------|
G|----------------------------------------------------------------|
D|-11-11-11-11-11-11-11--7-7-7-7-7-7-7-7-7-7--9-9-9-9-9-9-9-9-9-9-| x2
A|--9--9--9--9--9--9--9--5-5-5-5-5-5-5-5-5-5--7-7-7-7-7-7-7-7-7-7-|
E|----------------------------------------------------------------|

Bridge (Instruments only):

E|-------------------------------------------------------------------|
B|-------------------------------------------------------------------|
G|-----------------9-9h11-9-------------9-9-11-9---11-11-11-11-11-11-|
D|-11-11-11-11*-------------14-14-14*--------------------------------|
A|--9--9--9--9*-------------12-12-12*---------------9--9--9--9--9--9-|
E|-------------------------------------------------------------------|

E|-----------------------|
B|-----------------------|
G|---14--14-14-13--13-13-|
D|-----------------------|
A|---12--12-12-11--11-11-|
E|-----------------------|

Last Chorus:

E|----------------------------------------------------------------|
B|----------------------------------------------------------------|
G|----------------------------------------------------------------|
D|-11-11-11-11-11-11-11--7-7-7-7-7-7-7-7-7-7--9-9-9-9-9-9-9-9-9-9-| x2
A|--9--9--9--9--9--9--9--5-5-5-5-5-5-5-5-5-5--7-7-7-7-7-7-7-7-7-7-|
E|----------------------------------------------------------------|

E|-----------------------------|
B|-----------------------------|
G|-----------------------------|
D|-----------------------------|
A|-4--4-4--4-4-4-4-4-4-4-4-4-4-|
E|-2--2-2--2-2-2-2-2-2-2-2-2-2-|
      . .    

E|----------------------------------------------------------------|
B|----------------------------------------------------------------|
G|----------------------------------------------------------------|
D|-11-11-11-11-11-11-11--7-7-7-7-7-7-7-7-7-7--9-9-9-9-9-9-9-9-9-9-| x2
A|--9--9--9--9--9--9--9--5-5-5-5-5-5-5-5-5-5--7-7-7-7-7-7-7-7-7-7-|
E|----------------------------------------------------------------|

E|-----------------------------|
B|-----------------------------|
G|-----------------------------|
D|-----------------------------|
A|-4--4-4--4-4-4-4-4-4-7-7-7-4-|
E|-2--2-2--2-2-2-2-2-2-5-5-5\2-|
      . .    

Tabber: Winno

Email: winnorulz@hotmail.com
Добавлено: 25.07.2012
Другие материалы по этой песне:
  • Аккорды и текст

Страница создана 13.06.2012
http://primanota.ru/bodyjar/sequel-chords.htm
Привет, Гость.
Предлагаем пройти революционный курс по гитаре.
Подарок от PrimaNota.Ru, забирай!