PrimaNota.ru - самый крупный в мире бесплатный архив песенных текстов, аккордов, табулатур и нот


Bodyjar - I Can Help You - таба, видео

Регистрация Запомнить меня
Войти через:  Facebook Google Twitter Vk Yandex Mail.ru

Bodyjar - I Can Help You - таба, видео

Печатать
Просмотров: 208
SONG: I Can't Help You

(Guitar 1)
e|------------------------|-----|
B|------------------------|-----|
G|------------------------|-----|
D|-------------5-5--------|--x--|
A|---7-7--5-5--3-3--3-3---|--x--|
E|---5-5--3-3-------1-1---|--x--|

(Guitar 2)
e|---------------------|
B|---------------------|
G|--7-8-7-8----7-7-7---|
D|--5-6-5-6----5-5-5---|
A|---------------------|
E|---------------------|

e|-------------------|
B|-------------------|
G|-------------------|
D|---2-2--2-2--0-2---|
A|---0-0--3-0--2-3---|
E|-------------------|

e|--------------------------------|
B|--------------------------------|
G|--------------------------------|
D|------------------10-10-10-10---|
A|---5-5-5----3-3-3>-8--8--8--8---|
E|---3-3-3----1-1-1>--------------|

e|-------------------|
B|-------------------|
G|-------------------|
D|---2-2--2-2--0-2---|
A|---0-0--3-0--2-3---|
E|-------------------|

e|-----------------------------|
B|-----------------------------|
G|-----------------------------|
D|-----------------------------|
A|---5-5-5----3-3-3----3-3-3---|
E|---3-3-3----1-1-1----1-1-1---|

verse (2x)
e|------------------------|
B|------------------------|
G|------------------------|
D|-------------5-5--------|
A|---7-7--5-5--3-3--3-3---|
E|---5-5--3-3-------1-1---|

e|------------------------------|
B|------------------------------|
G|------------------------------|
D|---7-7-7-7--10-10--10-10-10---|
A|---5-5-5-5---8--8---8--8--8---|
E|------------------------------|
  A Place to live is hard to find...

Chorus (i think)
e|-------------------------------------|
B|-------------------------------------|
G|-------------------------------------|
D|-------------------10-10-10--12-12---|
A|---7-7--7-10-10-10--8--8--8--10-10---|
E|---5-5--5--8--8--8-------------------|


This part follows the chorus on the second time (2x)
e|---------------------------------------------------------|
B|---------------------------------------------------------|
G|---------14-------------14-----------14----14-16---------|
D|------14----14-------14----14-----14----14-------14-12---|
A|---12-------------12-----------12------------------------|
E|---------------------------------------------------------|

e|-----------------------------------------------------------------------|
B|----------------15------------------15---------------------------------|
G|-------12----------14--------12---------14-----------------------------|
D|----12------12------------12-----12---------14-14-14-12-12--12-14-14---|
A|--------------------------------------------12-12-12-12-12--12-12-12---|
E|-----------------------------------------------------------------------|

Start of outro
(Guitar 1)
e|------------------------|
B|------------------------|
G|---4---5---4---5---4----|
D|------------------------|
A|---2---3---2---3---2----|
E|------------------------|

(Guitar 2)
e|------------------------|
B|------------------------|
G|-1--2--1--2--1--2--1----|
D|------------------------|
A|------------------------|
E|------------------------|

Outro
e|------------------------------|
B|------------------------------|
G|------------------------------|
D|------------------------------|
A|----------------------5-------|
E|----------------------3-------|
I cant help you, I cant help you

e|------------------------|
B|------------------------|
G|------------------------|
D|-------------5-5--------|
A|---7-7--5-5--3-3--3-3---|
E|---5-5--3-3-------1-1---|

e|-------------------------------------|
B|-------------------------------------|
G|-------------------------------------|
D|-------------------10-10-10--12-12---|
A|---7-7--7-10-10-10--8--8--8--10-10---|
E|---5-5--5--8--8--8-------------------|
Добавлено: 28.06.2012
Другие материалы по этой песне:
  • Аккорды и текст

Страница создана 28.06.2012
http://primanota.ru/bodyjar/i-can-help-you-chords.htm
Привет, Гость.
Предлагаем пройти революционный курс по гитаре.
Подарок от PrimaNota.Ru, забирай!