PrimaNota.ru - самый крупный в мире бесплатный архив песенных текстов, аккордов, табулатур и нот


Bodyjar - Dependency - таба

Регистрация Запомнить меня
Войти через:  Facebook Google Twitter Vk Yandex Mail.ru

Bodyjar - Dependency - таба

Печатать
Просмотров: 142
BAND: Bodyjar
SONG: Dependency

Intro:
e|-------------------------------------------|
B|-------------------------------------------|
G|-------------------------------------------|
D|-------------------------------------------|
A|--->7---0-0-->7---0-0-->7--0-0-->7---0-0---|
E|-------------------------------------------|

Riff 1
e|------------------------------------------------|
B|------------------------------------------------|
G|------------------------------------------------|
D|-------10-9--------9-10-----------10-10---9-9---|
A|--7-7---8-7---2-2--7--8---3-3-8-8--8--8---7-7---|
E|--5-5---------0-0---------1-1-1-1---------------|

Verse:
e|-----------------------------------------------------|
B|-----------------------------------------------------|
G|-----------------------------------------------------|
D|-------10-9--------9-10----------------10-10---9-9---|
A|--7-7---8-7---2-2--7--8---3-3-3-3-3-3---8--8---7-7---|
E|--5-5---------0-0---------1-1-1-1-1-1----------------|

Chorusy part: (the 10 10 part isnt a powerchord)
e|-----------------------------------------|
B|-----------------------------------------|
G|-----------------------------------------|
D|-----------------------------------------|
A|---5--5->--10--10-------5--5->--10--10---|
E|---3--3-----------------3--3-------------|

e|-----------------------------------------|
B|-----------------------------------------|
G|-----------------------------------------|
D|-----------------------------------------|
A|---7-7---7-7-7---7-7-7---7-7-7---7-7-7---|
E|---5-5---5-5-5---5-5-5---5-5-5---5-5-5---|

some little solo part
e|-------------------------------------------------------------|
B|-------------------------------------------------------------|
G|---14--14--14--14--12--14--16--16-16-16--12--17-17--16--14---|
D|-------------------------------------------------------------|
A|---12--12--12--12--10--12--14--14-14-14--10--15-15--14--12---|
E|-------------------------------------------------------------|

e|------------------------------------------------|
B|------------10----------------------------------|
G|--9--12--9------12--10--9--10---12-10-9--7--9---|
D|------------------------------------------------|
A|------------------------------------------------|
E|------------------------------------------------|

Middle Pre-chorus part...i think
e|--------------------------|
B|--------------------------|
G|--------------------------|
D|---9--9-------------------|
A|---7--7---9-10---12--10---|
E|----------7--8---10---8---|

The part when he says 'controooolll' e|-----------------------------------------------------------|
B|-----------------------------------------------------------|
G|-----------------------------------------------------------|
D|---9---9-9---7-7-7---5-5-5--4-4--5-5-5--2-2-2--4-4-4-5-5---|
A|---7---7-7---5-5-5---3-3-3--2-2--3-3-3--0-0-0--2-2-2-3-3---|
E|-----------------------------------------------------------|

heres the solo that follows... e|----------------------------------------------------------------------|
B|-----------------------------------------^15-14-13-12-13-12--9--------|
G|--9------------------------------------------------------------10-9---|
D|----9--10--7----9-10-9-10-12-10--9--10--------------------------------|
A|----------------------------------------------------------------------|
E|----------------------------------------------------------------------|

e|-------------------------------------------------------------|
B|-------------------------------------------------------------|
G|---14--14--14--14--12--14--16--16-16-16--12--17-17--16--14---|
D|-------------------------------------------------------------|
A|---12--12--12--12--10--12--14--14-14-14--10--15-15--14--12---|
E|-------------------------------------------------------------|

e|----------------------------------------|
B|----------------------------------------|
G|---9-9-9--7-9-10-10--9-7--5-5-5-4-5-5---|
D|----------------------------------------|
A|---7-7-7--5-7--8--8--7-5--3-3-3-2-3-3---|
E|----------------------------------------|

The rest is just made up of the riffs above.
Добавлено: 15.04.2012
Другие материалы по этой песне:
  • Аккорды и текст

Страница создана 15.04.2012
http://primanota.ru/bodyjar/dependency-chords.htm
Привет, Гость.
Предлагаем пройти революционный курс по гитаре.
Подарок от PrimaNota.Ru, забирай!