PrimaNota.ru - самый крупный в мире бесплатный архив песенных текстов, аккордов, табулатур и нот


Body Count - There Goes The Neighborhood - текст песни, таба, видео

Регистрация Запомнить меня
Войти через:  Facebook Google Twitter Vk Yandex Mail.ru

Body Count - There Goes The Neighborhood - текст песни, таба, видео

Печатать
Просмотров: 136
Авторы: Tracy Marrow, Ernie C

There Goes The Neighborhood - Body Count

>From their album Body Count (1992)
Transcribed and written by Stefan 'Cleve' Nilsson (00-05-20)
Email: clevutt@hotmail.com

   ~ - vibrato
   t - right hand tap

Tune down the guitar half step.

Intro/Chorus
|----------------------------------------|
|----------------------------------------|
|----------------------------------------|
|----------------------------------------|
|------0-------3---2------3-2-0---0------|
|--2-------2--------------------2---2-0--|


Verse
|-------------------------------|-------------------------------|
|-------------------------------|-------------------------------|
|-------------------------------|-------------------------------|
|------------------------2---2--|------------------------5---5--|
|--4---------------------0---0--|--4---------------------3---3--|
|--2---2-2-2-2-2-2-2-2-2--------|--2---2-2-2-2-2-2-2-2-2--------|
       P.m..............               P.m..............

Pre-Chorus
|-------------------------------------------------------------------|
|-------------------------------------------------------------------|
|-------------------------------------------------------------------|
|--------------------------------------------------5-5-5-5-5-5-5-5--|
|--4-----------------------------------------------3-3-3-3-3-3-3-3--|
|--2---2-2-2-2-2-2-0-0-0-0-0-0-0-0-2-2-2-2-2-2-2-2------------------|
       P.m........................................

Bridge Riff 1
|--------------------------------|
|--------------------------------|
|--------------------------------|
|------4-------------------------|
|------------4-----5-----4-------|
|--2-2---2-2---2-2---2-2---2-3~--|
   P.m   ...   ...   ...   .

Bridge Riff 2
|---------------------------------|
|---------------------------------|
|---------------------------------|
|------5-----7-----9-----10---12--|
|------3-----5-----7-----8----10--|
|--0-0---0-0---0-0---0-0----0-----|


Bridge Ending
|------|
|------|
|------|
|--14--|
|--12--|
|------|


Interlude
8x              8x            8x            8x
|---------------|-------------|-------------|-------------|
|--13-10-15-10--|--13-8-15-8--|--13-6-15-6--|--13-5-15-5--|
|---------------|-------------|-------------|-------------|
|---------------|-------------|-------------|-------------|
|---------------|-------------|-------------|-------------|
|---------------|-------------|-------------|-------------|
    t     t         t    t        t    t        t    t

Interlude Rhytm
|-----|-----|-----|-----|
|-----|-----|-----|-----|
|-----|-----|-----|-----|
|--7--|--5--|--3--|--2--|
|--7--|--5--|--3--|--2--|
|--5--|--3--|--1--|--0--|


Solo Rhytm
|---------------------------------|---------------------------------|
|---------------------------------|---------------------------------|
|---------------------------------|---------------------------------|
|---------------------------------|---------------------------------|
|----------7---------------7---7--|----------5---------------5---5--|
|--5-5-5-5-5-------5-5-5-5-5---5--|--3-3-3-3-3-------3-3-3-3-3---3--|
   P.m....         .......           P.m....         .......

|---------------------------------|---------------------------------|
|---------------------------------|---------------------------------|
|---------------------------------|---------------------------------|
|---------------------------------|---------------------------------|
|----------3---------------3---3--|----------2---------------2---2--|
|--1-1-1-1-1-------1-1-1-1-1---1--|--0-0-0-0-0-------0-0-0-0-0---0--|
   P.m....         .......           P.m....         .......


I couldn't transcribe the solo, but if someone have transcribed
the solo I would be glad to have it sent to me by email.

That's about all, and have fun playing this song!
________________________________________________________________________
     
Добавлено: 13.08.2013
Другие материалы по этой песне:

Страница создана 02.03.2012
http://primanota.ru/body-count/there-goes-the-neighborhood-chords.htm
Привет, Гость.
Предлагаем пройти революционный курс по гитаре.
Подарок от PrimaNota.Ru, забирай!