PrimaNota.ru - самый крупный в мире бесплатный архив песенных текстов, аккордов, табулатур и нот


Body Count - Gears Of War - таба, видео

Регистрация Запомнить меня
Войти через:  Facebook Google Twitter Vk Yandex Mail.ru

Body Count - Gears Of War - таба, видео

Печатать
Просмотров: 161
Body Count
Gears of War

(Eb Tuning)



Main Riff

e|--------------------------------------------------|
B|--------------------------------------------------|
G|--------------------------------------------------|
D|--------------------------------------------------|
A|--------------------------------------------------|
E|-7p0-5p0-3p0-3h5p0-0-0000---5p0-3p0-2p0-2h3p0-0000|
                       pmpm                     pmpm



Chorus Riff

e|--------------------------------------------------|
B|--------------------------------------------------|
G|--------------------------------------------------|
D|-9--------10-10-7-8-5---5--4-----4/9--------------|
A|-9-(Hold)-10-10-7-8-5---5--4-----4/9--------------|
E|-7--------8- 8--5-6-3---3--2-----2/7--------------|

Bridge
e|--------------------------------------------------|
B|--------------------------------------------------|
G|--------------------------------------------------|
D|--------------------------------------------------|
A|------8p7-----------------------------------------|
E|-0000-----0000-8p7-0000-7p5-0000-5p3--------------|
   pmpm     pmpm     pmpm     pmpm  



End 
e|--------------------------------------------------|
B|--------------------------------------------------|
G|--------------------------------------------------|
D|-2------------------------------------------------|
A|-2------------------------------------------------|
E|-0------------------------------------------------|





Main Riff (x20)
Chorus Riff (x2)
Main Riff (x15)
Chorus Riff (x4)
Bridge (x10)
Chorus Riff (x4)
Main Riff(x4)
Добавлено: 15.05.2012
Другие материалы по этой песне:
  • Аккорды и текст

Страница создана 15.05.2012
http://primanota.ru/body-count/gears-of-war-chords.htm
Привет, Гость.
Предлагаем пройти революционный курс по гитаре.
Подарок от PrimaNota.Ru, забирай!