PrimaNota.ru - самый крупный в мире бесплатный архив песенных текстов, аккордов, табулатур и нот


Bodo Wartke - Ich Trau Mich Nicht - таба, видео

Регистрация Запомнить меня
Войти через:  Facebook Google Twitter Vk Yandex Mail.ru

Bodo Wartke - Ich Trau Mich Nicht - таба, видео

Печатать
Просмотров: 32
Intro:

  Em
e|---0---0---0------|
H|---0---0---0------|
G|---0---0---0------|
D|------------------|
A|-------------2----|
E|-0---3---2--------|


Riff 1:
  E        F#m
e|---0---0---2---2--|
H|---0---0---2---2--|
G|---1---1---2---2--|
D|-2-------4--------|
A|-----4-------2----|
E|------------------|

            (Riff 1)                       (Riff 1) ...
            E              F#m             E           F#m 
Verse: Seit ich hier wohne fahr ich in der Regel
            E               F#m             E           F#m
       Fast täglich mit der U-Bahn richtung Tegel.
       Seitdem hab ich kaum noch Geld in meinem Sparschwein,
       denn 2,10€ kost' mich jeder Fahrschein.

Riff 2:

  A        H         A        H         A        F#        H    C#m H11
e|---0---0----------|---0---0----------|---0---0---2---2--|-------0-2--------|
H|---2---2---4---4--|---2---2---4---4--|---2---2---2---2--|---4---2-2--------|
G|---2---2---4---4--|---2---2---4---4--|---2---2---3---3--|---4---1-2--------|
D|-----------4---4--|-----------4---4--|------------------|---4--------------|
A|-0---0---2---2----|-0---0---2---2----|-0---0-------1----|-2---2---2--------|
E|------------------|------------------|---------2--------|------------------|
   
           A              H
PreCh: Ich könnte ja mal schwarzfahr'n,
            A               H
       dann spar ich den Betrag.
                A               F#
       Doch das kostet, hab ich Pech,
               H   C#m H11
       statt 2,10€ 40 €.

Riff 3:
  Em                  Em                  Em                  H
e|-------------------|-------------------|-------------------|------------------|
H|-------------------|-------------------|-------------------|------------------|
G|-------------------|-------------------|-------------------|------------------|
D|-------------------|-------------------|-------------------|------------------|
A|-7-10-9-8-7-10-9-8-|-7-10-9-8-7-10-9-8-|-7-10-9-8-7--------|-9-9-9-9-9--------|
E|-0-----------------|-0-----------------|-0----------10-9-8-|-7-7-7-7-7--------|

       Em                               Em                             Em                        
Break: Egal, das eine mal, was soll passier'n? Die kontrollieren heute dich ganz sicher nicht,
                 H
       also, was zögerst du?

 

Riff 4 (schwer):

 Em       D       C         H        Em       D       C       H
|-3h0---0-------7---6-5h3h0-3---5---|-3h0---0-------------3-2-------0--|
|-----0-------7-----------------4---|-----0-------3-0-1-0---------4----|
|-----0-------7-------0---------4---|-----0-------2---------------4----|
|-2-------0-------------------------|-2-------0------------------------|
|-----------------3---------2-------|-----------------3-------2--------|
|-----------------------------------|----------------------------------|

 Em       D       C         H        A                H
|-3h0---0-------7---6-5h3h0-3---5---|-5---3---5---6---7----------------|
|-----0-------7-----------------4---|---------7---5--------------------|
|-----0-------7-------0---------4---|-----------------8----------------|
|-2-------0-------------------------|----------------------------------|
|-----------------3---------2-------|-0-------0------------------------|
|-----------------------------------|-----3-----------7----------------|

Riff 4 (leicht):

 Em   D   C   H    (3x) A       H
|------------------|  |------------------| 
|---8---7---5---4--|  |-2-------4--------|
|---9---7---5---4--|  |-2-------4--------|
|---9---7---5---4--|  |-2---2---4--------|
|-7---5---3---2----|  |-0---0-1-2--------|
|------------------|  |---3--------------|
  
             Em                D C H Em D C H
Refrain: Ich trau' mich nicht!
             Em                D C H A    H
         Ich trau' mich nicht!

                    (Riff 1)                         (Riff 1)    ...
                    E              F#m               E           F#m
Verse: Was soll ich sagen? Ich bin Schwarzfahrdrückeberger
                E            F#m         E         F#m            
       und mein Ärger wird darüber immer ärger.
       Naja, was soll's? Werd ich halt arm, doch bleib ich edel.
       Da bemerk' ich: neben mir steht ein Mädel.
 
       (Riff 2)
       A            H
PreCh: Was für eine Traumfrau!
                 A               H
       Eine wie sie sah ich noch nie.
           A                  F#                H
       Ich schau sie an, doch kaum schaut sie zurück
                  C#m    H11
       krieg' ich weiche Knie.

 
           (Riff 3)
           Em                                     Em                                  Em 
Break: Geh ran, Mann! Sprich sie an! Was soll passiern? Nix zu verlier'n! So 'ne Schönheit
                                   H
       gibt's weit und breit nicht zweimal!


             (Riff 4)  
             Em                D C H Em D C H
Refrain: Ich trau' mich nicht!
             Em                D C H    A              H
         Ich trau' mich nicht!      Es ist ein Trauma, ich...


Interlude: 
... trau mich nicht.
              Em   D   C   H  
             |------------------|   
             |---8---7---5-4----|  
             |---9---7---5-4----|  
             |---9---7---5-4----|  
             |-7---5---3---2----|  
             |------------------|

Bridge:
 
Oh nein! Jetzt steig sie ein in die U-Bahn gegenüber, die in die verkehrte Richtung fährt
 C                                  Em                                C
|-0--------------------------------|-0------------------------------|-0-------------------|
|-1--------------------------------|-0------------------------------|-1-------------------|
|-0--------------------------------|-0------------------------------|-0-------------------|
|-2--------------------------0--1--|-2-----------------------1---0--|-2-------------------|
|-3--------------------------------|-2------------------------------|-3-------------------|
|----------------------------------|-0------------------------------|---------------------|

Ich seh sie wohl nie wieder.     Der U-Bahnschacht verschluckt die Bahn,
  C#°7                               Hm/F#            F#                      
|-6--------------------------------|-2-------2--------2------------2-----|
|-5--------------------------------|-3-------3--------2------------2-----|
|-6--------------------------------|-4-------4--------3------------3-----|
|-5--------------------------------|-4----------------4------------------|
|----------------------------------|-2----------------4------------------|
|----------------------------------|-2----------------2------------------|  
   
Au revoir, mon amour fou!      Doch was ist das? Sie guckt mich an
      Hm/F#           F#                    Gj7      A#°7
    |-2-------2-------2-------2------------|-2-------0-------------|
    |-3-------3-------2-------2------------|-0-------2-------------|
    |-4-------4-------3-------3------------|-0-------0-------------|
    |-4---------------4--------------------|-0-------2-------------|
    |-2---------------4--------------------|-x-------1-------------|
    |-2---------------2--------------------|-3---------------------|

und lächelt mir zu
      F#/C#     F#7b9
    |-2---------9----|
    |-2---------8----|
    |-3---------9----|
    |-4---------8----|
    |-4---------9----|
    |----------------|


Verse: (w/ Riff 1)

Wie dem auch sei, die Zeit heilt alle Wunden.
Jahre Später hab ich auch 'ne Frau gefunden.
Und auf einmal steh ich, eh ich mich versehe
mit jener Frau halt da vor'm Traualtar zwecks Ehe.

PreCh: (w/ Riff 2)

Der Pfarrer fragt: "Willst du
diese hier zum Weibe,
sie ehren und begehren,
bis dass der Tod euch scheide?"

Break: (w/ Riff 3)

Wie? So lange? Na, Mann. Das kann ja dauern.
Ich schau mir dann lieber die Frau nochmal kurz genau an.


Ref: (w/ Riff 4)
         Em             D C H      Em             D  C      H  
Ne, ich trau mich nicht.       Ich trau mich nicht, mich zu trau'n.
    Em              D C H     A             H 
Ich trau mich nicht!      Vor allem bei und mit...


Interlude: 
... Frau'n
     Em   D   C   H  
    |------------------|   
    |---8---7---5-4----|  
    |---9---7---5-4----|  
    |---9---7---5-4----|  
    |-7---5---3---2----|  
    |------------
------|

Bridge:
 
So kann's nicht weiter gehen, ich bin ein völlig feiger Wurm, ich komm damit nicht mehr klar. Ich stürz'
 C                                       Em                             C
|-0-------------------------------------|-0---------------------------|-0-------------------|
|-1-------------------------------------|-0---------------------------|-1-------------------|
|-0-------------------------------------|-0---------------------------|-0-------------------|
|-2-------------------------------0--1--|-2--------------------1---0--|-2-------------------|
|-3-------------------------------------|-2---------------------------|-3-------------------|
|---------------------------------------|-0---------------------------|---------------------|

mich vom Fernsehturm.        Jetzt steh' ich hier, tief unter mir
  C#°7                               Hm/F#              F#                      
|-6--------------------------------|-2-------2----------2-----2-----|
|-5--------------------------------|-3-------3----------2-----2-----|
|-6--------------------------------|-4-------4----------3-----3-----|
|-5--------------------------------|-4------------------4-----------|
|----------------------------------|-2------------------4-----------|
|----------------------------------|-2------------------2-----------|  
   
  klafft der eklatante                  Abgrund, steil geht's runter hier.    
  Hm/F#           F#                    Gj7                   A#°7
|-2-------2-------2-------2------------|-2--------------------0-------------|
|-3-------3-------2-------2------------|-0--------------------2-------------|
|-4-------4-------3-------3------------|-0--------------------0-------------|
|-4---------------4--------------------|-0--------------------2-------------|
|-2---------------4--------------------|-x--------------------1-------------|
|-2---------------2--------------------|-3----------------------------------|

ich wanke bis zur Kan-   te...
    F#/C#         F#7b9  F#7#5
   |-2------------9------7-|
   |-2------------8------x-|
   |-3------------9------9-|
   |-4------------8------8-|
   |-4------------9------9-|
   |-----------------------|

let ring and repeat ad lib.
|-----------------|
|-----------------|
|-----0---7---0---|
|-------8---8-----|
|---7-----------7-|
|-9---------------|

Riff 4

...
Добавлено: 17.12.2015
Другие материалы по этой песне:
  • Аккорды и текст

Страница создана 17.12.2015
http://primanota.ru/bodo-wartke/ich-trau-mich-nicht-chords.htm
Привет, Гость.
Предлагаем пройти революционный курс по гитаре.
Подарок от PrimaNota.Ru, забирай!