PrimaNota.ru - самый крупный в мире бесплатный архив песенных текстов, аккордов, табулатур и нот


Bobnoxious - Eoa - бас-таба, видео

Регистрация Запомнить меня
Войти через:  Facebook Google Twitter Vk Yandex Mail.ru

Bobnoxious - Eoa - бас-таба, видео

Печатать
Просмотров: 125
-------------------------------------------------------------------------------
                             E.O.A - Bobnoxious
-------------------------------------------------------------------------------
Tabbed by: Lefty_
E-mail: 

Tuning: Drop D Tuning

  Intro (No Bass Until 0:14)
G|---------------------------------------------------------------------------|
D|---------------------------------------------------------------------------|
A|---444----444----44----6666666666666666------------------------------------|
D|-------666---666----66-----------------------------------------------------|

G|---------------------------------------------------------------------------|
D|---------------------------------------------------------------------------|
A|------------444---------------444---------------444-----44-----------------|
D|---66666666-----6-66666666666-----6-66666666666-----666----66--------------|

G|---------------------------------------------------------------------------|
D|---------------------------------------------------------------------------|
A|---6666666666666666--------------------------------------------------------|
D|---------------------------------------------------------------------------|

  Verse (0:38)
G|---------------------------------------------------------------------------|
D|---------------------------------------------------------------------------|
A|------------------------------------------------------66666666-------------|
D|---6666666666666666-11111111-666666666666666666666666----------66666666----|

  Chorus #1 (0:53)
G|---------------------------------------------------------------------------|
D|---------------------------------------------------------------------------|
A|------------444--------------444--------------444-----444-6666666666666666-|
E|---66666666-----6-6666666666-----6-6666666666-----666----------------------|

  Verse (1:07)
G|---------------------------------------------------------------------------|
D|---------------------------------------------------------------------------|
A|------------------------------------------------------66666666-------------|
D|---6666666666666666-11111111-666666666666666666666666----------66666666----|

  Chorus #2 (1:22)
G|---------------------------------------------------------------------------|
D|---------------------------------------------------------------------------|
A|------------444--------------444--------------444-----444-----44-----------|
D|---66666666-----6-6666666666-----6-6666666666-----666-----666----66--------|

G|---------------------------------------------------------------------------|
D|---------------------------------------------------------------------------|
A|---6666666666666666--------------------------------------------------------|
D|---------------------------------------------------------------------------|

  Verse #2 x2 (1:39) 
G|---------------------------------------------------------------------------|
D|---------------------------------------------------------------------------|
A|------------4444------66666666---------------------------------------------|
D|---66666666------6666----------66666666------------------------------------|

  Chorus #2 (1:53)
G|---------------------------------------------------------------------------|
D|---------------------------------------------------------------------------|
A|------------444--------------444--------------444-----444-----44-----------|
D|---66666666-----6-6666666666-----6-6666666666-----666-----666----66--------|

G|---------------------------------------------------------------------------|
D|---------------------------------------------------------------------------|
A|---6666666666666666--------------------------------------------------------|
D|---------------------------------------------------------------------------|

  Solo (2:10)
G|---------------------------------------------------------------------------|
D|---------------------------------------------------------------------------|
A|------------444--------------444--------------444-----444-----44-----------|
D|---66666666-----6-6666666666-----6-6666666666-----666-----666----66--------|

G|---------------------------------------------------------------------------|
D|---------------------------------------------------------------------------|
A|---6666666666666666--------------------------------------------------------|
D|---------------------------------------------------------------------------|

  Verse (2:27)
G|---------------------------------------------------------------------------|
D|---------------------------------------------------------------------------|
A|------------------------------------------------------66666666-------------|
D|---6666666666666666-11111111-666666666666666666666666----------66666666----|

  Chorus #3(2:41)
G|---------------------------------------------------------------------------|
D|---------------------------------------------------------------------------|
A|------------444--------------444--------------444-----444-6666666666666666-|
D|---66666666-----6-6666666666-----6-6666666666-----666----------------------|

  Verse #2 x2 (2:56)
G|---------------------------------------------------------------------------|
D|---------------------------------------------------------------------------|
A|------------4444------66666666---------------------------------------------|
D|---66666666------6666----------66666666------------------------------------|

  Chorus #4 (Final Chorus) (3:11)
G|---------------------------------------------------------------------------|
D|---------------------------------------------------------------------------|
A|------------444--------------444--------------444-----444-6666666666666666-|
D|---66666666-----6-6666666666-----6-6666666666-----666----------------------|

G|---------------------------------------------------------------------------|
D|---------------------------------------------------------------------------|
A|------------444--------------444--------------444-----444-----44-----------|
E|---66666666-----6-6666666666-----6-6666666666-----666-----666----44--------|

G|---------------------------------------------------------------------------|
D|---------------------------------------------------------------------------|
A|---6666666666666666--------------------------------------------------------|
D|---------------------------------------------------------------------------|

  Ending (3:42)
G|------------------------|
D|------------------------|
A|------------444---------|
D|---66666666-----6-------|

| /  slide up
| \  slide down
| h  hammer-on
| p  pull-off
| ~  vibrato
| +  harmonic
| x  Mute note
===============================================================================
Добавлено: 24.06.2015
Другие материалы по этой песне:
  • Аккорды и текст

Страница создана 24.06.2015
http://primanota.ru/bobnoxious/eoa-chords.htm
Привет, Гость.
Предлагаем пройти революционный курс по гитаре.
Подарок от PrimaNota.Ru, забирай!