PrimaNota.ru - самый крупный в мире бесплатный архив песенных текстов, аккордов, табулатур и нот


Bobnified Penguins - Untitled - аккорды и текст

Регистрация Запомнить меня
Войти через:  Facebook Google Twitter Vk Yandex Mail.ru

Bobnified Penguins - Untitled - аккорды и текст

Печатать
Просмотров: 82
Untitled
Bobnified Penguins
Song:Untitled
Artist:Bobnified Penguins
Cd None

This is a song that is made by me. I'm not in a bamd but i make up my own 
stuff. If you have any comments or questions e-mail me at: 
x_manx33x21@hotmail.com

Intro:
e--0-0--0--0-0-0-0-0-
b-9-9-12-12-8-8-7-7--
g--------------------   X 2
d--------------------
a--------------------
E--------------------

Chorus:
e------------------------------------
b------------------------------------
g-------------------33333333-55555555 X 2
d-33333333-55555555-33333333-55555555
a-33333333-55555555-11111111-33333333
E-11111111-33333333------------------

Verse:
e-33333333-33333333-55555555-55555555
b-33333333-33333333-55555555-55555555
g-33333333-55555555-55555555-77777777 X 2
d-55555555-55555555-77777777-77777777
a-55555555-33333333-77777777-55555555
E-33333333-33333333-55555555-55555555

Outro:
e--0---0---0---0-2
b---0---0---0---0-
g----2---2---2---- X 2
d-----------------
a-0---0---0---0---
E-----------------

The Song:
Intro
Chorus
Verse
Intro
Chorus
Verse
Outro

     
Добавлено: 06.06.2013
Вам также может быть интересно:
Другие материалы по этой песне:
  • Аккорды и текст

Страница создана 06.06.2013
http://primanota.ru/bobnified-penguins/untitled-chords.htm
Привет, Гость.
Предлагаем пройти революционный курс по гитаре.
Подарок от PrimaNota.Ru, забирай!