PrimaNota.ru - самый крупный в мире бесплатный архив песенных текстов, аккордов, табулатур и нот


Bobnified Penguins - Pka - таба

Регистрация Запомнить меня
Войти через:  Facebook Google Twitter Vk Yandex Mail.ru

Bobnified Penguins - Pka - таба

Печатать
Просмотров: 102
Artist: Bobnified Penguins
Song: PKA

Tuning: DADADD
Intro:
d----------------
d-0-4-0-5-0-7-0-5
a----------------   X 4
d----------------
a----------------
Dm --------------
Chorus:
d-0-0-0-0-3-3-3-3-0-0-0-0-2-2-2-2
d-0-0-0-0-0-0-0-0-2-2-2-2-3-3-3-3
a-0-0-0-0-0-0-0-0-2-2-2-2-2-2-2-2   X 2
d-0-0-0-0-0-0-0-0-2-2-2-2-0-0-0-0
a-0-0-0-0-2-2-2-2-0-0-0-0--------
D-0-0-0-0-3-3-3-3----------------

Verse:
d----------------------------------------
d----------------------------------------
a-12-12-12-12-14-14-14-14-9-9-9-9-5-5-5-5   X 2
d-12-12-12-12-14-14-14-14-9-9-9-9-5-5-5-5
a-10-10-10-10-12-12-12-12-7-7-7-7-3-3-3-3
D----------------------------------------
Solo:
d-------------------------------------------------
d-19-17-15--15-----14--------19^------------------
a---------16--16-14--14-18-20---20-20-16-18-20----
d----------------------------------------------20^
a-------------------------------------------------
D-------------------------------------------------

The Song:
Intro
Chorus
Verse
Intro
Chorus
Verse
Solo
Chorus


     
Добавлено: 04.10.2013
Вам также может быть интересно:
Другие материалы по этой песне:
  • Аккорды и текст

Страница создана 04.10.2013
http://primanota.ru/bobnified-penguins/pka-chords.htm
Привет, Гость.
Предлагаем пройти революционный курс по гитаре.
Подарок от PrimaNota.Ru, забирай!