PrimaNota.ru - самый крупный в мире бесплатный архив песенных текстов, аккордов, табулатур и нот


Bobby Doran - Secret - таба, видео

Регистрация Запомнить меня
Войти через:  Facebook Google Twitter Vk Yandex Mail.ru

Bobby Doran - Secret - таба, видео

Печатать
Просмотров: 141
Standard Tuning
Capo-2nd fret
T=Thumb

VERSE
E------------------|
B--3-3-2----3-3-3--|
G--2-2-2----2-2-0--|
D--x-x-2----0-0-0--|
A--2-2-0----x-x-x--|
E-----------2-2-3--|
            T T T

PRE CHORUS
E----------0---(0)-----------0---(0)--|
B-----3----3---(3)------3----3---(3)--|
G----0---2-0---(0)-----0---2-0---(0)--|
D---4---4--4---(4)----4---4--4---(4)--|
A--2---0---x---(-)---2---0---x---(-)--|
E----------3---(3)-----------3---(3)--|
           T                 T

CHORUS
E--------------------------------0-0-0---|
B--3----3----3----2----3----3----3-3-3---|
G--2----2----2----0----2----2----0-2-0---|
D--0----0----x----2----0----0----4-4-4---|
A-------x----2----0---------x----2-0-x---|
E-------3-------------------3--------3---|
        T                   T
Добавлено: 04.03.2012
Другие материалы по этой песне:
  • Аккорды и текст

Страница создана 04.03.2012
http://primanota.ru/bobby-doran/secret-chords.htm
Привет, Гость.
Предлагаем пройти революционный курс по гитаре.
Подарок от PrimaNota.Ru, забирай!