PrimaNota.ru - самый крупный в мире бесплатный архив песенных текстов, аккордов, табулатур и нот


Bobby Darin - Come September Theme - таба, видео

Регистрация Запомнить меня
Войти через:  Facebook Google Twitter Vk Yandex Mail.ru

Bobby Darin - Come September Theme - таба, видео

Печатать
Просмотров: 119
When I first heard this song, I thought of it as the best theme ever.
Of course, this is my first tab and i'm pretty sure its correct.
PLEASE LISTEN TO THE ACTUAL THEME BEFORE PLAYING THIS!!!

~RJX

(/) Slide Up  (\) Slide Down  (h) Hammer On  (p) Pull Off  (b) Bend (r) Release (v) Vibrato


E|-----------------------------------------------------------------------------------|
B|-----------------------------------------------------------------------------------|
G|---------------2-------2---------------------------------2-------2-----------------|
D|-2-0---------2---2-0-3---3-0-2-3-0---------2-0---------2---2-0-3---3-0-2-0---------|
A|-----3-2-0-3-----------------------2-3-2-0-----3-2-0-3---------------------2-3-2-0-|
E|-----------------------------------------------------------------------------------|



E|-----------------------------------------------------------|
B|---------------------2-0-----------------------------------|
G|-2-2-2-2-2-2-2-2-2-2-----2-1-------------------------------|
D|-----------------------------2---0-4-2---0-1-2-0-----------|
A|-------------------------------4-------4---------4-2-0-----|
E|-------------------------------------------------------4-2-|



E|---------0-------0-------------------------------------------------------------|
B|-0-2-3-2---2-3-2---2-3-2-------------------------------------------------------|
G|-----------------------------------------------------2-------2-----------------|
D|-------------------------2-0-0---------2-0---------2---2-0-3---3-0-2-0---------|
A|-------------------------------2-3-2-0-----3-2-0-3---------------------2-3-2-0-|
E|-------------------------------------------------------------------------------|
                                                        Copyright- RJX
Добавлено: 17.07.2013
Другие материалы по этой песне:
  • Аккорды и текст

Страница создана 17.07.2013
http://primanota.ru/bobby-darin/come-september-theme-chords.htm
Привет, Гость.
Предлагаем пройти революционный курс по гитаре.
Подарок от PrimaNota.Ru, забирай!