PrimaNota.ru - самый крупный в мире бесплатный архив песенных текстов, аккордов, табулатур и нот


Bobaflex - Mamma Dont Take My Drugs Away - таба, видео

Регистрация Запомнить меня
Войти через:  Facebook Google Twitter Vk Yandex Mail.ru

Bobaflex - Mamma Dont Take My Drugs Away - таба, видео

Печатать
Просмотров: 55
Artist: Bobaflex
Album: Anything That Moves
Song: Mama (Don't Take My Drugs Away)

Tabbed by: Patrick van Zandwijk
Tuning C G C F A D

Intro

--------------------------|
--------------------------|
--------------------------|
-0---3----5~--------------|
-0---3----5~--------------|
-0---3----5~--------------|

(Can be played with hammer ons)
-------------------------------------------------------------|
-------------------------------------------------------------|
-------------------------------------------------------------|
-------------------------xxx---------------------------xxx---|
---------3--------0~-----xxx-------------3-------5~----xxx---|
0-3-5-6-----6-5-3-0~-----xxx----0-3-5-6----6-5-3-5~----xxx---|


--------------------------------------------------------------|
--------------------------------------------------------------|
--------------------------------------------------------------|
------------------------------------------------------7~-\\---|
----------3---------5-3-0-3p0----------------3--------5~-\\---|
-0-3-5-6----6-5-3~------------5-3----0-3-5-6---6-5-3----------|

2nd time
-------------------------------------------------------------|
-------------------------------------------------------------|
-------------------------------------------------------------|
-------------------------xxx---------------------------xxx---|
---------3--------0~-----xxx-------------3-------5~----xxx---|
0-3-5-6-----6-5-3-0~-----xxx----0-3-5-6----6-5-3-5~----xxx---|


--------------------------------------------------------------|
--------------------------------------------------------------|
--------------------------------------------------------------|
------------------------------------------------------7~-\\---|
----------3---------5-3-0-3p0----------------3--------5~-\\---|
-0-3-5-6----6-5-3-0-----------5-3----0-3-5-6---6-5-3----------|

Verse

------------------------------|
------------------------------|
------------------------------|
-0-0~~------\\\\\-------------|
-0-0~~------\\\\\-------------|slide
-0-0~~------\\\\\-------------|

-----------------------------------------|
-----------------------------------------|
-----------------------------------------|
-----------------------------------------|
-----------------------------------------|
0-0-0-0-0-0-0-0-5-5-5-5-5-5--5b-0--------|
x x x x x x x x x x x x x x

------------------------------|
------------------------------|
------------------------------|
-5~--5~--5~--5~---------------|
-5~--5~--5~--5~---------------|
-5~--5~--5~--5~---------------|

Pre Chorus

                  strum this part fast (I didn't count them, but you'll hear how much times)
                  ^^^^^^^^^^^^^^^^^^^^^^^^^^^^^^^
----------------------------------------------------------------|
----------------------------------------------------------------|
-7~-6~-5~-4~------9-9-9-9-8-8-8-8-7-7-7-7-6-6-6-6---------------|
-x~-x~-x~-x~------x-x-x-x-x-x-x-x-x-x-x-x-x-x-x-x---------------|
-5~-4~-3~-2~------7-7-7-7-6-6-6-6-5-5-5-5-4-4-4-4---------------|
----------------------------------------------------------------|

--------------------------------------------------------------|
--------------------------------------------------------------|
9-9-9-9--13-13-13-13--16-16-16-16--19-19-19-19---21-21-21-21--|
x-x-x-x--x--x--x--x---x--x--x--x---x--x--x--x----x--x--x--x---|
7-7-7-7--11-11-11-11--14-14-14-14--17-17-17-17---19-19-19-19--|
--------------------------------------------------------------|

Chorus

------------------------------------|
------------------------------------|
------------------------------------|
-0-3-5~---7-3-5~-----0-0~-0-0~------|
-0-3-5~---7-3-5~-----0-0~-0-0~------|
-0-3-5~---7-3-5~-----0-0~-0-0~------|

------------------------------------|
------------------------------------|
------------------------------------|
-0-3-5~---7-3-5~-----0-0------------|
-0-3-5~---7-3-5~-----0-0------------|
-0-3-5~---7-3-5~-----0-0------------|


Intro Riff Again

-------------------------------------------------------------|
-------------------------------------------------------------|
-------------------------------------------------------------|
-------------------------xxx---------------------------xxx---|
---------3--------0~-----xxx-------------3-------5~----xxx---|
0-3-5-6-----6-5-3-0~-----xxx----0-3-5-6----6-5-3-5~----xxx---|


------------------------------------------------------------|
------------------------------------------------------------|
------------------------------------------------------------|
------------------------------------------------------7~----|
----------3---------5-3-0-3p0----------------3--------5~----|
-0-3-5-6----6-5-3~------------5-3----0-3-5-6---6-5-3--------|

Verse

------------------------------|
------------------------------|
------------------------------|
-0-0~~------0-0~~-------------|
-0-0~~------0-0~~-------------|
-0-0~~------0-0~~-------------|

-----------------------------------------|
-----------------------------------------|
-----------------------------------------|
-----------------------------------------|
-----------------------------------------|
0-0-0-0-0-0-0-0-5-5-5-5-5-5--5b-0--------|
x x x x x x x x x x x x x x

------------------------------|
------------------------------|
------------------------------|
-5~--5~--5~--5~---------------|
-5~--5~--5~--5~---------------|
-5~--5~--5~--5~---------------|

Pre Chorus

                  strum this part fast (I didn't count them, but you'll hear how much times)
                  ^^^^^^^^^^^^^^^^^^^^^^^^^^^^^^^
----------------------------------------------------------------|
----------------------------------------------------------------|
-7~-6~-5~-4~------9-9-9-9-8-8-8-8-7-7-7-7-6-6-6-6---------------|
-x~-x~-x~-x~------x-x-x-x-x-x-x-x-x-x-x-x-x-x-x-x---------------|
-5~-4~-3~-2~------7-7-7-7-6-6-6-6-5-5-5-5-4-4-4-4---------------|
----------------------------------------------------------------|

-----------------------------------------------------------|
-----------------------------------------------------------|
9-9-9-9--13-13-13-13--16-16-16-16--19-19-19-19---21212121--|
x-x-x-x--x--x--x--x---x--x--x--x---x--x--x--x----x-x-x-x---|
7-7-7-7--11-11-11-11--14-14-14-14--17-17-17-17---19191919--|
-----------------------------------------------------------|

Chorus

------------------------------------|
------------------------------------|
------------------------------------|
-0-3-5~---7-3-5~-----0-0~-0-0~------|
-0-3-5~---7-3-5~-----0-0~-0-0~------|
-0-3-5~---7-3-5~-----0-0~-0-0~------|

------------------------------------|
------------------------------------|
------------------------------------|
-0-3-5~---7-3-5~-----0-0~-0-0~------|
-0-3-5~---7-3-5~-----0-0~-0-0~------|
-0-3-5~---7-3-5~-----0-0~-0-0~------|

------------------------------------------------------------|
------------------------------------------------------------|
------------------------------------------------------------|
0xxxxxx0xxxxxx-0~-------------------------------------------|
0xxxxxx0xxxxxx-0~-------------------------------------------|
0xxxxxx0xxxxxx-0~--pick slide\\\\---------------------------|

Rythm Guitar under solo


--------------------------------------------------------------|
--------------------------------------------------------------|
--------------------------------------------------------------|
-0-3-5-5-5-5-5-5-5-5-5-5-5-5--7-7-3-3-0-0-0-0-0-0-0-0-0-0-0-0-|
-0-3-5-5-5-5-5-5-5-5-5-5-5-5--7-7-3-3-0-0-0-0-0-0-0-0-0-0-0-0-|
-0-3-5-5-5-5-5-5-5-5-5-5-5-5--7-7-3-3-0-0-0-0-0-0-0-0-0-0-0-0-|

------------------------------------------------------------|
------------------------------------------------------------|
------------------------------------------------------------|
-0-0-3-3-5-5-5-5-5-5-5-5-5-5-5-5--7-7-3-3-------------------|
-0-0-3-3-5-5-5-5-5-5-5-5-5-5-5-5--7-7-3-3-------------------|
-0-0-3-3-5-5-5-5-5-5-5-5-5-5-5-5--7-7-3-3-------------------|

Pre Chorus again

                  strum this part fast (I didn't count them, but you'll hear how much times)
                  ^^^^^^^^^^^^^^^^^^^^^^^^^^^^^^^
----------------------------------------------------------------|
----------------------------------------------------------------|
-7~-6~-5~-4~------9-9-9-9-8-8-8-8-7-7-7-7-6-6-6-6---------------|
-x~-x~-x~-x~------x-x-x-x-x-x-x-x-x-x-x-x-x-x-x-x---------------|
-5~-4~-3~-2~------7-7-7-7-6-6-6-6-5-5-5-5-4-4-4-4---------------|
----------------------------------------------------------------|

-----------------------------------------------------------|
-----------------------------------------------------------|
9-9-9-9--13-13-13-13--16-16-16-16--19-19-19-19---21212121--|
x-x-x-x--x--x--x--x---x--x--x--x---x--x--x--x----x-x-x-x---|
7-7-7-7--11-11-11-11--14-14-14-14--17-17-17-17---19191919--|
-----------------------------------------------------------|

Chorus

------------------------------------|
------------------------------------|
------------------------------------|
-0-3-5~---7-3-5~-----0-0~-0-0~------|
-0-3-5~---7-3-5~-----0-0~-0-0~------|
-0-3-5~---7-3-5~-----0-0~-0-0~------|

-----------------------------------------------------------------------|
-----------------------------------------------------------------------|
-----------------------------------------------------------------------|
-0--3--5-5-5-5-5-5-5-5-5-5-5-5---7-7-3-3-5-5-5-5--0-0-0-0-0-0-0-0------|
-0--3--5-5-5-5-5-5-5-5-5-5-5-5---7-7-3-3-5-5-5-5--0-0-0-0-0-0-0-0------|
-0--3--5-5-5-5-5-5-5-5-5-5-5-5---7-7-3-3-5-5-5-5--0-0-0-0-0-0-0-0------|

-------------------------------------------------------------------------|
-------------------------------------------------------------------------|
-------------------------------------------------------------------------|
-0-0-3-3-5-5-5-5-5-5-5-5-5-5-5-5---7-7-3-3-5-5-5-5--0-0-0-0-0-0-0-0------|
-0-0-3-3-5-5-5-5-5-5-5-5-5-5-5-5---7-7-3-3-5-5-5-5--0-0-0-0-0-0-0-0------|
-0-0-3-3-5-5-5-5-5-5-5-5-5-5-5-5---7-7-3-3-5-5-5-5--0-0-0-0-0-0-0-0------|

-----------------------------------------------------------------------------|
-----------------------------------------------------------------------------|
-----------------------------------------------------------------------------|
-0-0-3-3-5-5-5-5-5-5-5-5-5-5-5-5---7-7-3-3-5-5-5-5--0-0\\-0-0\\-0-0\\-0------|\\slide
-0-0-3-3-5-5-5-5-5-5-5-5-5-5-5-5---7-7-3-3-5-5-5-5--0-0\\-0-0\\-0-0\\-0------|
-0-0-3-3-5-5-5-5-5-5-5-5-5-5-5-5---7-7-3-3-5-5-5-5--0-0\\-0-0\\-0-0\\-0------|
Добавлено: 16.05.2016
Другие материалы по этой песне:
  • Аккорды и текст

Страница создана 16.05.2016
http://primanota.ru/bobaflex/mamma-dont-take-my-drugs-away-chords.htm
Привет, Гость.
Предлагаем пройти революционный курс по гитаре.
Подарок от PrimaNota.Ru, забирай!