PrimaNota.ru - самый крупный в мире бесплатный архив песенных текстов, аккордов, табулатур и нот


Bob Mould - Star Machine - таба, видео

Регистрация Запомнить меня
Войти через:  Facebook Google Twitter Vk Yandex Mail.ru

Bob Mould - Star Machine - таба, видео

Печатать
Просмотров: 59
-------------------------------------------------------------------------------
                             STAR MACHINE - Bob Mould
-------------------------------------------------------------------------------
Tabbed by: jjkraw

Tuning: standard, capo 2nd fret (all notes relative to capo)

Note that on the verses I'm using power chords but it looks like Bob
may use open chords for some (he moves around too much!).


Intro / verse pattern

e|---------------------------------------------------------------|
B|--------------------------------3p2----------------------------|
G|--------4-------4-------4-------2------------------------------|
D|--------2-------4-------0-------2------------------------------|
A|--------2---2-2-2-------x---0-0-0------------------------------|
E|----0-0-0-----------3-3-3--------------------------------------|


Chorus / solo pattern (E B G A power chords)

e|---------------------------------------------------------------|
B|---------------------------------------------------------------|
G|------------4-4-4-4--------------------------------------------|
D|----2-2-2-2-4-4-4-4-5-5-5-5-2-2-2-2----------------------------|
A|----2-2-2-2-2-2-2-2-5-5-5-5-0-0-0-0----------------------------|
E|----0-0-0-0---------3-3-3-3------------------------------------|


Bridge (C G D A / B power chords)

e|---------------------------------------------------------------|
B|---------------------------------------------------------------|
G|----5-5-5-5---------7-7-7-7---------5-5-5-5---------4-4-4-4----|
D|----5-5-5-5-5-5-5-5-7-7-7-7-7-7-7-7-5-5-5-5-5-5-5-5-4-4-4-4----|
A|----3-3-3-3-5-5-5-5-5-5-5-5-7-7-7-7-3-3-3-3-5-5-5-5-2-2-2-2----|
E|------------3-3-3-3---------5-5-5-5---------3-3-3-3------------|

e|---------------------------------------------------------------|
B|---------------------------------------------------------------|
G|----4-4-4-4----------------------------------------------------|
D|----4-4-4-4----------------------------------------------------|
A|----2-2-2-2----------------------------------------------------|
E|---------------------------------------------------------------|



************************************

| p   pull-off

************************************
Добавлено: 06.08.2015
Другие материалы по этой песне:
  • Аккорды и текст

Страница создана 06.08.2015
http://primanota.ru/bob-mould/star-machine-chords.htm
Привет, Гость.
Предлагаем пройти революционный курс по гитаре.
Подарок от PrimaNota.Ru, забирай!