PrimaNota.ru - самый крупный в мире бесплатный архив песенных текстов, аккордов, табулатур и нот


Bob Marley - I shot the sherrif - таба, видео

Регистрация Запомнить меня
Войти через:  Facebook Google Twitter Vk Yandex Mail.ru

Bob Marley - I shot the sherrif - таба, видео

Печатать
Просмотров: 151


heres the intro and the chords played in the verses:
e-------------------------------------------------
b-------------------------------------------------
g------0---------------------------0-0-----0------
d--0-3---3-0--------0----------0-3------3----3-0--
a-------------3-1-3---1-3-1-----------------------
E---------------------------3---------------------

e--------------- 2x
b---------------
g---------------
d---------------
a-3-1---3-3-----
E-----3-----3---

chords:
e-3-3--3---3-3--3---3-3--3---3-3--3---3-3--3------
b-3-3--3---3-3--3---4-4--4---4-4--4---3-3--3------
g-3-3--3---3-3--3---5-5--5---5-5--5---3-3--3------
d-------------------------------------------------
a-------------------------------------------------
E-------------------------------------------------

e-3-3--3---3-3--3---3-3--3-- 2x
b-3-3--3---3-3--3---3-3--3--
g-3-3--3---3-3--3---3-3--3--                     
d---------------------------                      
a---------------------------
E---------------------------

e-6-6--6---5-5--5---3-3--3---3-3--3-- again and 
b-8-8--8---6-6--6---3-3--3---3-3--3-- again      
g-8-8--8---7-7--7---3-3--3---3-3--3--
d------------------------------------
a------------------------------------
E------------------------------------

have fun and jam along
peace 
tabbed by joschka bender

Добавлено: 20.10.2013
Другие материалы по этой песне:
  • Аккорды и текст

Страница создана 20.10.2013
http://primanota.ru/bob-marley/i-shot-the-sherrif-chords.htm
Привет, Гость.
Предлагаем пройти революционный курс по гитаре.
Подарок от PrimaNota.Ru, забирай!