PrimaNota.ru - самый крупный в мире бесплатный архив песенных текстов, аккордов, табулатур и нот


Bob Evans - Dune - таба, видео

Регистрация Запомнить меня
Войти через:  Facebook Google Twitter Vk Yandex Mail.ru

Bob Evans - Dune - таба, видео

Печатать
Просмотров: 153
Tabbed by: Vali Tronaru
Email: vali.tronaru@yahoo.com
Tuning: Standard

D - Down strum
U - Up strum
h - Hammer
/,\ - Slide

e|-------------------------|-------------------------|
B|-------------------------|-------------------------|
G|-------------------------|-------------------------|
D|-------------------------|-------------------------|
A|----2--2--------2-0h2----|----2--2--------2-0h2----|
E|--0------0----0-------0--|--0------0----0-------0--|

                                                 U
e|-------------------------|---------------------0---|
B|-------------------------|---------------------0---|
G|-------------------------|---------------------0---|
D|-------------------------|---------------------5---|
A|----2--2--------2-0h2----|----2--2--------2----3---|
E|--0------0----0-------0--|--0------0----0---0--0---|

                       U                         U
e|---------------------0---|---------------------0---|
B|---------------------0---|---------------------0---|
G|---------------------0---|---------------------0---|
D|---------------------4---|---------------------5---|
A|----3--3--------3----2---|----2--2--------2----3---|
E|--0------0----0---0--0---|--0------0----0---0--0---|


e|---------------------------------------------------|
B|---------------------------------------------------|
G|---------------------2-4-5\4--4--------------------|
D|---------------2-4-5----------2--------------------|
A|----3--3-----3---------------------3--3------------|
E|--0--------0---------------------0------0----------|


e|---------------------------------------------------|
B|---------------------------------------------------|
G|--2h4-----2----------------------------------------|
D|-------5-----5--4--5--2----------------------------|
A|----------------------3----3--3--------------------|
E|-------------------------0------0------------------|


e|---------------------------------------------------|
B|---------------------------------------------------|
G|----------0----------------------------------------|
D|-----0--2---4--2--0--4-----------------------------|
A|---3-----------------5----5--5---------------------|
E|------------------------5------5-------------------|


e|---------------------------------------------------|
B|-----------------0---------------------------------|
G|------------2/4----0-------------------------------|
D|------4--0------------2----------------------------|
A|---5------------------2------0h2-0h2---------------|
E|--------------------------0-----------0------------|


e|---------------------------------------------------|
B|---------------------------------------------------|
G|--2/4\2--0--2--0-----------------------------------|
D|-----------------2--0--2---------------------------|
A|-----------------------2----2--2-------------------|
E|--------------------------0------0-----------------|


e|---------------------------------------------------|
B|---------------------------------------------------|
G|---4-3/4--0-2-0------------------------------------|
D|----------------2-0--2-----------------------------|
A|---------------------3-----3--3--------------------|
E|-------------------------0------0------------------|


e|---------------------------------------------------|
B|---------------------------------------------------|
G|----------0----------------------------------------|
D|-----0--2---4--2--0--4-----------------------------|
A|---3-----------------5----5--5---------------------|
E|------------------------5------5-------------------|

                                              D
e|--------------------------------------------0------|
B|-----------------0--------------------------0------|
G|------------2/4----0------------------------0------|
D|------4--0------------2---------------------0------|
A|---5------------------2------0h2-0h2--------0------|
E|--------------------------0-----------0-----0------|


e|--------------------------------|
B|--------------------------------|
G|--------------------------------|
D|-----------0--------------------|
A|----0--1/2---2--0---------------|
E|--0----------------3--0---------|

                D       U
e|---7----------0-------0--------------0-------------|
B|---0------7---0-------0----5-7-8-7/8---------------|
G|---0---5--0---5-------5----------------------------|
D|--------------7-------7----------------------------|
A|---------------------------------------------------|
E|---------------------------------------------------|

    D    U  D    D  U    D  U      D      D     D
e|--7----7--7----7--7----7--7------5------2-----0----|
B|--8----8--8----8--8----8--8------0------3-----0----|
G|--9----9--9----9--9----9--9------0------2-----0----|
D|--0----0--0----0--0----0--0-------------0-----2----|
A|----------------------------------------------2----|
E|---------------------------------------------------|
Добавлено: 16.07.2012
Другие материалы по этой песне:

Страница создана 22.05.2012
http://primanota.ru/bob-evans/dune-chords.htm
Привет, Гость.
Предлагаем пройти революционный курс по гитаре.
Подарок от PrimaNota.Ru, забирай!