PrimaNota.ru - самый крупный в мире бесплатный архив песенных текстов, аккордов, табулатур и нот


Bob Dylan - Time Of Dying - аккорды и текст, видео

Регистрация Запомнить меня
Войти через:  Facebook Google Twitter Vk Yandex Mail.ru

Bob Dylan - Time Of Dying - аккорды и текст, видео

Печатать
Просмотров: 204
Time Of Dying
Bob Dylan
Standard tuneing (eadgbe) use capo on 2fret


Dylan uses a slide in this
song the sympal < and > is the direation
the slide is used.

e]----------- -----------------
b]----0-0---- --------------
g]-------3-0- -----------------
d]--0-------2 --0--------------
a]---2------- ---2-------------
e]0---------- 0---------0-0-0-0
In my time of dying dont want nobody to mooan.....

e]----------- -----------------
b]----0-0---- --------------
g]-------3-0- -----------------
d]--0-------2 --0--------------
a]---2------- ---2-------------
e]0---------- 0---------0-0-0-0
Добавлено: 19.12.2013
Другие материалы по этой песне:
  • Аккорды и текст

Страница создана 19.12.2013
http://primanota.ru/bob-dylan/time-of-dying-chords.htm
Привет, Гость.
Предлагаем пройти революционный курс по гитаре.
Подарок от PrimaNota.Ru, забирай!