PrimaNota.ru - самый крупный в мире бесплатный архив песенных текстов, аккордов, табулатур и нот


Bob Dylan - Nashville Skyline - аккорды и текст, таба, видео

Регистрация Запомнить меня
Войти через:  Facebook Google Twitter Vk Yandex Mail.ru

Bob Dylan - Nashville Skyline - аккорды и текст, таба, видео

Печатать
Просмотров: 159
Nashville Skyline
Bob Dylan
 Nashville Skyline (1969)
----------------------------------------------------------------------------
1.Girl of the North Country
2.Nashville Skyline Rag
3.To Be Alone with You
4.I Threw It All Away
5.Peggy Day
6.Lay, Lady, Lay
7.One More Night
8.Tell Me That It Isn't True
9.Country Pie
10.Tonight I'll Be Staying Here With You
----------------------------------------------------------------------------
1.Girl of the North Country

G          Bm       C                     G
 If you're travelin' in the north country fair,
G                    Bm   C             G
 Where the winds hit heavy on the borderline,
G        Bm    C             G
Remember me to one who lives there.
G        Bm  C               G
She once was  a true love of mine.

Well, if you go when the snowflakes storm,
When the rivers freeze and summer ends,
Please see if she's wearing a coat so warm,
To keep her from the howlin' winds.

Please see for me if her hair hangs long,
If it rolls and flows all down her breast.
Please see for me if her hair hangs long,
That's the way I remember her best.

I'm a-wonderin' if she remembers me at all.
Many times I've often prayed
In the darkness of my night,
In the brightness of my day.

So if you're travelin' in the north country fair,
Where the winds hit heavy on the borderline,
Remember me to one who lives there.
She once was a true love of mine.
----------------------------------------------------------------------------
2.Nashville Skyline Rag

[fade in] C  . | . . . . | C (7 fr.) . . . | . . . . |

Harp verse:

| C  . F .G| C . F .G| C  . F .G| G  /a-B C  . |
| C  . F .G| C . F .G| C  . F .G| G  /a-B C  . |
| D7 . . . | G . . . | E7 . . . | A7 .    nc . |
| C  . F .G| C . F .G| C  . F .G| G  /a-B C  . |

Steel guitar verse

Dobro verse

Ac. guitar verse

Piano verse

Harp solo:

| C  . F . | C . F . | C  . F . | G  /a-B C  . |
 Steel guitar                  Dobro
  :   .   .   .     :   .   .   .     :   .   .   .     :   .   .   .
|---------8-------|-----------------|-----5---3-------|-----------------|
|-----8-----------|-8-----------3---|/5---------5-3---|-----------------|
|-7/9---9---9-7-9-|---9\7---5-------|-----------------|-----5-7-5-------|
|-----------------|-----------------|---------------5-|-5-7-------------|
|-----------------|-----------------|-----------------|-----------------|
|-----------------|-----------------|-----------------|-----------------|  Ac. guitar
                     Piano
  :   .   .   .     :   .   .   .     :   .   .   .     :   .   .   .
|-----------------|-----------------|---0-------------|-----------------|
|-1-3-1-0---------|-----------------|-4---4-3-1-------|-1---------------|
|---------2-0-----|-0---------------|-----------2-0-2-|---0-------------|
|-------------0-2-|---2-0-----------|-----------------|-----1-0---------|
|-----------------|-------2-3-------|-----------------|---------3-------|
|-----------------|-----------------|-----------------|-----------------|
C7
----------------------------------------------------------------------------
3.To Be Alone with You

Turnaround:

-----4---3---2---|-0----|
-----3---2---1---|-0----|
-----4---3---2---|-1----|
-----------------|-2----|
-----------------|-2----|
-----------------|-0----|
E

"Is it rollin', Bob?"

[n.C.]           E
To be alone with you
             A
Just you and me
                      E
Now won't you tell me true
                             B
Ain't that the way it oughta be?
                   E
To hold each other tight
                A
the whole night through
                     E
Ev'rything is always right
B                    E    [turnaround]
 When I'm alone with you.

To be alone with you
At the close of the day
With only you in view
While evening slips away
It only goes to show
That while life's pleasures be few
The only one I know
Is when I'm alone with you.
              A
They say that nighttime is the right time
   E
To be with the one you love
    F#
Too many thoughts get in the way in the day
           B      [n.C.]
But you're always what I'm thinkin' of
I wish the night was here
Bringin' me all of your charms
When only you are near
To hold me in your arms.
I'll always thank the Lord
When my working day's through
I get my sweet reward
To be alone with you.
----------------------------------------------------------------------------
4.I Threw It All Away

Intro:

  A       Dm        C   Em  F
  :   .   .   .     :   .   .   .
|-----0-3-3-1-1---|---0-0-----0-0---|
|---2-------------|----------1----1-|
|-2---------------|---------2-------|
|-----------------|-----------------|
|-----------------|-----------------|
|-----------------|-----------------|
  C       G         C
  :   .   .   .     :   .   .   .
|-----------------|-----------------|
|-1---------3-1--0|-1---------------|
|-----------------|-----------------|
|-----------------|-----------------|
|-----------------|-----------------|
|-----------------|-----------------|
C      Am      F      C
I once held her in my arms,
C                 Am     F    G
She said she would always stay.
A         Dm
But I was cruel,
  C           Em     F
I treated her like a fool,
C  F               C      F
    I threw it all away.

Once I had mountains in the palm of my hand,
And rivers that ran through ev'ry day.
I must have been mad,
I never knew what I had,
Until I threw it all away.
F                 G      C                   Am
Love is all there is, it makes the world go 'round,
F             G                   A
Love and only love, it can't be denied.
F                  G
No matter what you think about it
C                  Em      Am
 You just won't be able to do without it.
Bb                        F  G
Take a tip from one who's tried.
So if you find someone that gives you all of her love,
Take it to your heart, don't let it stray,
For one thing that's certain,
You will surely be a-hurtin',
If you throw it all away
C      G             C
If you throw it all away.

[Ending same as intro]
----------------------------------------------------------------------------
5.Peggy Day

     F           D7            Gm          C7
     :     .     .     .       :     .     .     .
---|-------1-----------------|-------3----------------|
---|-----1-------------3-----|-------3-----------1----|
---|---2---------------5-----|-----3-----------3------| etc.
--2|-3---------------4-----4-|-5-------------2--------|
---|-----------4-5-----------|-----------0-3----------|
---|-------------------------|------------------------|
F . D7 . Gm . C7

F     D7  Gm        C7          F    D7
Peggy Day  stole my poor heart away,
Gm         C7              F    D7
 By golly, what more can I say,
Gm                C7               F    Bb   F   C
Love to spend the night with Peggy Day.

Peggy night makes my future look so bright,
Man, that girl is out of sight,   F     Bb   F
Love to spend the day with Peggy night.
          A
Well, you know that even before I learned her name,
           D7
You know I loved her just the same.
    Gm
An' I tell 'em all, wherever I may go, Just so they'll know,
     C
that she's my little lady And I love her so.
Peggy Day stole my poor heart away,
Turned my skies to blue from gray,
Love to spend the night with Peggy Day.

Peggy Day stole my poor heart away,
By golly, what more can I say,     F    D7
Love to spend the night with Peggy Day.
G                 C7               F    F/A  Bb Bdim F   F#7-F7
Love to spend the night with Peggy Day.
----------------------------------------------------------------------------
6.Lay, Lady, Lay

Chords:

A     577655
C#m   x46654
G     355433
Bm    x24432
E     022100
F#m   244222
The little 
Добавлено: 04.08.2013
Другие материалы по этой песне:
  • Аккорды и текст

Страница создана 04.08.2013
http://primanota.ru/bob-dylan/nashville-skyline-chords.htm
Привет, Гость.
Предлагаем пройти революционный курс по гитаре.
Подарок от PrimaNota.Ru, забирай!