PrimaNota.ru - самый крупный в мире бесплатный архив песенных текстов, аккордов, табулатур и нот


Bob Dylan - House Of The Risin Sun - таба, видео

Регистрация Запомнить меня
Войти через:  Facebook Google Twitter Vk Yandex Mail.ru

Bob Dylan - House Of The Risin Sun - таба, видео

Печатать
Просмотров: 169
Уроки эстрадного вокала в Санкт-Петербурге
		   House Of The Risin' Sun
____________________________________________________________________
For each chord you fingerpick the strings 5432123.
The intro riffs are (ONE,FOUR)
In each verse the riffs are (ONE,TWO, ONE,THREE, ONE,FOUR)
____________________________________________________________________
RIFF ONE
         Am              C               D               F
E |---------0-----|---------0-----|---------2-----|---------0-----|
B |-------1---1---|-------1---1---|-------3---3---|-------1---1---|
G |-----2-------2-|-----0-------0-|-----2-------2-|-----2-------2-|
D |---2-----------|---2-----------|---0-----------|---3-----------|
A |-0-------------|-3-------------|-0-------------|-3-------------|
E |---------------|---------------|---------------|---------------|
     There is        a house         in New Orleans
____________________________________________________________________

RIFF TWO
         Am              C               E               E
E |---------0-----|---------0-----|---------0-----|---------0-----|
B |-------1---1---|-------1---1---|-------0---0---|-------0---0---|
G |-----2-------2-|-----0-------0-|-----1-------1-|-----1-------1-|
D |---2-----------|---2-----------|---2-----------|---2-----------|
A |-0-------------|-3-------------|-2-------------|-2-------------|
E |---------------|---------------|---------------|---------------|
     They call       the rising      sun
____________________________________________________________________

RIFF THREE
         Am              E
E |---------0-----|---------0-----|
B |-------1---1---|-------0---0---|
G |-----2-------2-|-----1-------1-|
D |---2-----------|---2-----------|
A |-0-------------|-2-------------|
E |---------------|---------------|
     And God         I know
____________________________________________________________________

RIFF FOUR
         Am              E               Am              E
E |---------0-----|---------0-----|---------0-----|---------0-----|
B |-------1---1---|-------0---0---|-------1---1---|-------0---0---|
G |-----2-------2-|-----1-------1-|-----2-------2-|-----1-------1-|
D |---2-----------|---2-----------|---2-----------|---2-----------|
A |-0-------------|-2-------------|-0-------------|-2-------------|
E |---------------|---------------|---------------|---------------|
____________________________________________________________________

(CHORD SHAPES:)
Am  C  E  D  F                   Tabs_Eric Frenkil
0---0--0--2--0-                Lyrics_Dolly Parton
1---1--0--3--1-                  Sung_Bob Dylan
2---0--1--2--2-
2---2--2--0--3-                   AIM:ericf89  
0---3--2--0--3-                 EMAIL:ericf89@aol.com
---------------         This tab is entirely my own work.
____________________________________________________________________
     
Добавлено: 12.11.2013
Другие материалы по этой песне:
  • Аккорды и текст

Страница создана 06.11.2013
http://primanota.ru/bob-dylan/house-of-the-risin-sun-chords.htm
Привет, Гость.
Предлагаем пройти революционный курс по гитаре.
Подарок от PrimaNota.Ru, забирай!