PrimaNota.ru - самый крупный в мире бесплатный архив песенных текстов, аккордов, табулатур и нот


Bob Dylan - Don Think Twice - аккорды и текст, видео

Регистрация Запомнить меня
Войти через:  Facebook Google Twitter Vk Yandex Mail.ru

Bob Dylan - Don Think Twice - аккорды и текст, видео

Печатать
Просмотров: 109
Don Think Twice
Bob Dylan
Play it with the Capo on the 4th fret.


C G Am Am (G)

e|-----------------|--------0h1------|----------------|----------------|
B|------------1----|------------0----|---1-------1----|---1--------1---|
G|----------0------|----0------------|---------2------|----------2-----|
D|----2------2-----|-----0--------0--|---2------2-----|---2-------2----|
A|-3---------------|-----------------|0---------------|0---------------|
E|-------3---------|-3---------------|----------------|-------3--------|



F F C G7
e|----------------|-----------------|-----------------|--------0h1------|
B|---1------------|---1-----------1-|----1--------1---|------------0----|
G|-----------2--0-h-2----------2----|-----------0-----|---0-------------|
D|---3---------3--|-----3-------3---|----2-------2----|-----0--------0--|
A|----------------|-----------------|-3---------------|-----------------|
E|1-------1-------|-1-------1-------|-------3---------|-3---------------|



C G Am Am (E)
e|-----------------|--------0h1------|-----------------|-----------------|
B|----1-------1----|------------0----|----1-------1----|----1----------1-|
G|----------0------|----0------------|----------2------|-----------2-----|
D|----2------2-----|-----0--------0--|----2------2-----|----2--------2---|
A|-3---------------|-----------------|-0---------------|-0---------------|
E|-------3---------|-3---------------|-----------------|--------0--------|

D7 D7 G G6 G7
e|-----------------|-----------------|-----------------|-----------------|
B|-----1---------1-|-----1---------1-|----0----------0-|----0----------0-|
G|-----------2-----|-----------2-----|-----------0-----|-----------0-----|
D|-----0-------0---|-----0-------0---|----0--------2---|----3--------3---|
A|-----------------|-----------------|-----------------|-----------------|
E|-2-------2-------|-2-------2-------|-3-------3-------|-3---------------|


C C C7 C7
e|-----------------|-----------------|-----------------|-----------------|
B|----1--------1---|-------1---------|----1---------1--|---------1-------|
G|-----------0-----|---0-----0-------|----------3------|----3------3-----|
D|----2-------2----|-----2-----2-----|----2-------2----|------2------2---|
A|-3---------------|-3---------------|-3---------------|-3---------------|
E|-----------------|-----------------|-----------------|-----------------|

F F D7 D7
e|-----------------|-----------------|-----------------|--------0h2------|
B|----1------------|---1-----------1-|----------1------|------------1----|
G|-----------2---0-h-2----------2----|----2-------2----|---2-------------|
D|----3--------3---|-----3-------3---|------0-------0--|-----0--------0--|
A|-----------------|-----------------|-----------------|-----------------|
E|-1---------------|-1-------1-------|-2---------------|-2---------------|


C G Am (G) F
e|-----------------|--------0h1------|-----------------|-----------------|
B|------------1----|------------0----|----1------------|---1-----------1-|
G|----------0------|----0------------|----------2----0-h-2---------2-----|
D|----2------2-----|-----0--------0--|----2------2-----|-----3-------3---|
A|-3---------------|-----------------|-0---------------|-----------------|
E|-------3---------|-3---------------|--------3--------|-1-------1-------|

C G C C
e|-----------------|--------0h1------|-----------------|-----------------|
B|----1-------1----|------------0----|----1----------1-|----1----------1-|
G|----------0------|----0------------|-----------0-----|-----------0-----|
D|----2------2-----|-----0--------0--|----2--------2---|----2--------2---|
A|-3---------------|-----------------|-3---------------|-3---------------|
E|-------3---------|-3---------------|--------3--------|--------3--------|
Добавлено: 03.12.2013
Другие материалы по этой песне:
  • Аккорды и текст

Страница создана 03.12.2013
http://primanota.ru/bob-dylan/don-think-twice-chords.htm
Привет, Гость.
Предлагаем пройти революционный курс по гитаре.
Подарок от PrimaNota.Ru, забирай!