PrimaNota.ru - самый крупный в мире бесплатный архив песенных текстов, аккордов, табулатур и нот


Bob Catley - We Are Immortal - аккорды и текст, видео

Регистрация Запомнить меня
Войти через:  Facebook Google Twitter Vk Yandex Mail.ru

Bob Catley - We Are Immortal - аккорды и текст, видео

Печатать
Просмотров: 212
Уроки эстрадного вокала в Санкт-Петербурге
We Are Immortal
Bob Catley
BOB CATLEY – We Are Immortal
from the album Immortal (2008)

Intro:
Abm, Em, Bm, A (2x)

Main riff:
e---|-------------------------------|------------------------------|
B---|-------------------------------|------------------------------|
G---|---------4-4--6---------4-4--6-|---------4-4------------------|
D-6-|---------4-4--6---------4-4--6-|---------4-4--------4-------6-|
A-6-|---6-6-6-2-2--4---6-6-6-2-2--4-|---6-6-6-2-2------4------6-|
E-4-|---4-4-4----------4-4-4--------|---4-4-4-------2------------4-|

e-------------------------------|-----------------------------|
B-------------------------------|-----------------------------|
G---------4-4--6---------4-4--6-|---------4-4---9------8------|
D---------4-4--6---------4-4--6-|---------4-4---9------9------|
A---6-6-6-2-2--4---6-6-6-2-2--4-|---6-6-6-2-2---7--7-7-6--6-6-|
E---4-4-4----------4-4-4--------|---4-4-4---------------------|

repeat Main riff

Verse 1:
C#m                    A/C#
   I believe there's a holy ground
         B                     Abm            B
Where we will be safe from the spells around
C#m                     A/C#
   I believe there will be an end
       B                      A           E
To the hunt that forced us to live in the dark
    A             E
And hide from our lives

Verse 2:
C#m               A/C#
   Only minutes before the dawn
B                         Abm            B
  Run and hide before the night is gone
C#m                   A/C#
   Another day on the battlefield
B                    A             E
Do as you told don't show what you feel
   A                 E
Pretend it's not for real

Chorus:
       Abm                    E
We can see it all through our evil dreams
    F#                  Ebm
The truth is not always what it seems
    C#m                   E
The tyrants will fall and we will rule
Abm               F#
Let them hear our call
       Abm                    E
We can see it all through our evil dreams
    F#                  Ebm
The truth is not always what it seems
    C#m                   E
The tyrants will fall and we will rule
   Abm               F#
So let them hear our call
         Abm
We are immortal

repeat Main riff

Verse 3:
C#m                    A/C#
   I believe there's a place for us
B                 Abm                B
Far from the war, far from our loss
C#m          A/C#
   Our souls can't be slaves
B              A                  E
Our dreams can never be forced to change
A              E
Forced to disappear

repeat Chorus

repeat Intro

Solo rhythm:
Fm, Fm, C#, E
Fm, Fm, E, C#, E, F#

repeat Chorus

repeat Main riff twice

end on Abm
Добавлено: 16.03.2012
Другие материалы по этой песне:
  • Аккорды и текст

Страница создана 16.03.2012
http://primanota.ru/bob-catley/we-are-immortal-chords.htm
Привет, Гость.
Предлагаем пройти революционный курс по гитаре.
Подарок от PrimaNota.Ru, забирай!