PrimaNota.ru - самый крупный в мире бесплатный архив песенных текстов, аккордов, табулатур и нот


Bob And The Weaver Band - My Rocket Has Returned - таба, видео

Регистрация Запомнить меня
Войти через:  Facebook Google Twitter Vk Yandex Mail.ru

Bob And The Weaver Band - My Rocket Has Returned - таба, видео

Печатать
Просмотров: 78
This is from "Bob and the Weaver Band Strikes back yet another time after
the last time but before the third" It is the song "My Rocket has
returned"
This song is different from alot of BATWB songs, it's in drop D tuning
Intro
e--x--xxxxxx--xxx-xxx-xxx--20br~
b--x--xxxxxx--xxx-xxx-xxx-------
g--x--xxxxxx--xxx-xxx-xxx-------
d--1--111111--333-333-333-------
a--1--111111--333-333-333-------
D--1--111111--333-333-333-------
Verse
Same as intro but without the high note
Chorus
e-xxxx-xxxx-xxxx-xxxx-xxxx
b-xxxx-xxxx-xxxx-xxxx-xxxx
g-xxxx-xxxx-xxxx-xxxx-xxxx
d-3333-4444-5555-6666-7777
a-3333-4444-5555-6666-7777
D-3333-4444-5555-6666-7777

Solo (really Awesome) but it has be played super fast
e--99999-9h10-10p9p8p7p6p5p4p3p2h3---------20br
b----------------------------------5h6-6b7-----     Repeat 6x
g----------------------------------------------
d----------------------------------------------
a----------------------------------------------
D----------------------------------------------

________________________________________________________________________________
     
Добавлено: 10.11.2013
Вам также может быть интересно:
Другие материалы по этой песне:
  • Аккорды и текст

Страница создана 10.11.2013
http://primanota.ru/bob-and-the-weaver-band/my-rocket-has-returned-chords.htm
Привет, Гость.
Предлагаем пройти революционный курс по гитаре.
Подарок от PrimaNota.Ru, забирай!