PrimaNota.ru - самый крупный в мире бесплатный архив песенных текстов, аккордов, табулатур и нот


Bob And The Weaver Band - My Rocket - таба, видео

Регистрация Запомнить меня
Войти через:  Facebook Google Twitter Vk Yandex Mail.ru

Bob And The Weaver Band - My Rocket - таба, видео

Печатать
Просмотров: 81
This is my rendition of the wonderful hit by Bob and The Weaver Band called 
"My Rocket"
It is in standard tuning and is fairly simple

Intro
e--3--3--x-x--x-x---------
b--3--3--x-x--x-x--5-5-3-3
g--0--0--x-x--x-x--5-5-3-3
d--0--2--5-5--3-3--5-5-3-3
a--2--2--5-5--3-3--3-3-1-1
E--3--0--3-3--1-1--x-x-x-x

Verse
e--3--3--3--1--1--
b--3--3--3--1--1--
g--0--0--0--2--0--
d--0--2--0--3--2--
a--2--2--2--x--3--
E--3--0--3--x--x--

Solo
e----------------------------7-7-7-7--7-7-7-7-7-7-7--777---77
b------------------------------------------------------------
g------------------------------------------------------------
d--1-1-1-1-1-1-----------------------------------------------
a--------------2-2-2-2-2-2-2---------------------------------
E------------------------------------------------------------

Chorus is same as verse only power chords

_________________________________________________________________
     
Добавлено: 01.10.2013
Вам также может быть интересно:
Другие материалы по этой песне:
  • Аккорды и текст

Страница создана 01.10.2013
http://primanota.ru/bob-and-the-weaver-band/my-rocket-chords.htm
Привет, Гость.
Предлагаем пройти революционный курс по гитаре.
Подарок от PrimaNota.Ru, забирай!