PrimaNota.ru - самый крупный в мире бесплатный архив песенных текстов, аккордов, табулатур и нот


Bob Acri - Sleep Away - таба, видео

Регистрация Запомнить меня
Войти через:  Facebook Google Twitter Vk Yandex Mail.ru

Bob Acri - Sleep Away - таба, видео

Печатать
Просмотров: 186
Уроки эстрадного вокала в Санкт-Петербурге
-------------------------------------------------------------------------------
                             Sleep away - Bob acri
-------------------------------------------------------------------------------
Tabbed by:Santiago rubin de celis
E-mail: santiagorubin10@hotmail.com

Tuning: standar

e|-----2---------0-----------------------------------------------------------|
B|-----0---3-----0---2-----3------2-------5/7----0----5--7-------------------|
G|-----0---4-----0---0-----4--4---0--------------0---------------------------|
D|-------------------------5--5----------------------------------------------|
A|--------------------------------0------------------------------------------|
E|--3---------2---------0-----------------0-----------------2----------------|

e|-----------5-------------------------------------------2-------------------|
B|--5--7--7----7--5--7----5\3-2------0---2----0---2---2-----2---0---2--------|
G|---------------------------------------------------------------------------|
D|--------------------------------0------5-----------------------------------|
A|-------------------0-------------------4--------0-----------------2--------|
E|-----3---------------------------------------------------------------------|

e|-----------------------------------5-------2---------------------------------|
B|-0------3--------2--3---4---5-----------2------5--3---2------------ ---------|
G|-----0-----2--4-----------------2-----2--------------------------------------|
D|------------------------0----------------------------------------------------|
A|-----0------------------------------------------------2----------------------|
E|-----------------------------------2-----------------------------------------|

e|---------------------------------------------------------------------------|
B|-0-----3--------2--3-----------0--2--3-------------2--3--5---2----2--3---5-|
G|----0-----2--4--------2-----2-----------4-----4-----------------4----------|
D|---------------------------------------------------------------------------|
A|----0--------------------------------------------------------0-------------|
E|----------------------2---2-------------3---3------------------------------|

e|-----------------------------------5-----------------------------------------|
B|--6---7---0---5--7----2----5--7--7----7--5--7----5\3-2----0---2--------------|
G|----------0-----------2------------------------------------------------------|
D|-------------------------------------------------------0------5--------------|
A|--------------------------------------------0-----------------4--------------|
E|------0-------------2---------3----------------------------------------------|

e|-----------2-----------------------------------------------------1---2-----|
B|--0--2--2----2--0--2----0-----3-------2--3-----------0--2--3--4--2---2-----|
G|---------------------------0----2--4--------2-----2------------------------|
D|---------------------------------------------------------------------------|
A|-----0-------------2-------0-------------------------------------2---------|
E|--------------------------------------------2---2--------------------------|

e|-------------------------------5----------------------------------------------|
B|--7--0---5--7---2----5---7--7----7--5--7--------------------------------------|
G|-----0----------2-------------------------------------------------------------|
D|------------------------------------------------------------------------------|
A|---------------------------------------5--------------------------------------|
E|--0-----------2----------3----------------------------------------------------|




************************************

| /   slide up
| \   slide down
| h   hammer-on
| p   pull-off
| ~   vibrato
| +   harmonic
| x   Mute note
| b   Bend
| pb  Pre-bend
| br  Bend release
| pbr Pre-bend release
| brb Bend release bend

************************************
Добавлено: 13.06.2015
Другие материалы по этой песне:

Страница создана 27.08.2014
http://primanota.ru/bob-acri/sleep-away-chords.htm
Привет, Гость.
Предлагаем пройти революционный курс по гитаре.
Подарок от PrimaNota.Ru, забирай!