PrimaNota.ru - самый крупный в мире бесплатный архив песенных текстов, аккордов, табулатур и нот


Boats - This Is The End - таба, видео

Регистрация Запомнить меня
Войти через:  Facebook Google Twitter Vk Yandex Mail.ru

Boats - This Is The End - таба, видео

Печатать
Просмотров: 155
-------------------------------------------------------------------------------
                             This is the end - boats!
-------------------------------------------------------------------------------
Tabbed by:greenmonty97
E-mail:greenmonty97@yahoo.com

Tuning:Standard
   Intro (I'm pretty sure this is right you can figure it out from listening to it)
e|------------------------------------------------|
B|------------------------------------------------|
G|------------------------------------------------|
D|---------------------9---10b-----10   9------9--|
A|------------9-10-------------------------10-----|
E|----9 12----------------------------------------|
    Verse-(These are the power chords for the verse i don't have the strumming pattern 
but it's easy to figure
            out)
e|-------------------------------------------------------------------------------|
B|-------------------------------------------------------------------------------|
G|-------------------------------------------------------------------------------|
D|----11------2-----4------------------------------------------------------------|
A|----11------2-----4------------------------------------------------------------|
E|----9-------------2------------------------------------------------------------|
   chorus(strumming pattern is also very simple to figure out)
e|----------------------------------------------------------------------------------|
B|----------------------------------------------------------------------------------|
G|----------------------------------------------------------------------------------|
D|-----11----2----4----6-------11----2-----6----------------------------------------|
A|-----11----2----4----6-------11----2-----6----------------------------------------|
E|-----9----------2----4-------9-----------4----------------------------------------|

That's the entire song the solo is a bunch of C# pentatonic notes


************************************

| /   slide up
| \   slide down
| h   hammer-on
| p   pull-off
| ~   vibrato
| +   harmonic
| x   Mute note
| b   Bend
| pb  Pre-bend
| br  Bend release
| pbr Pre-bend release
| brb Bend release bend

************************************
Добавлено: 26.04.2015
Вам также может быть интересно:
Другие материалы по этой песне:
  • Аккорды и текст

Страница создана 26.04.2015
http://primanota.ru/boats/this-is-end-chords.htm
Привет, Гость.
Предлагаем пройти революционный курс по гитаре.
Подарок от PrimaNota.Ru, забирай!