PrimaNota.ru - самый крупный в мире бесплатный архив песенных текстов, аккордов, табулатур и нот


Boats - Alright Ok - таба, видео

Регистрация Запомнить меня
Войти через:  Facebook Google Twitter Vk Yandex Mail.ru

Boats - Alright Ok - таба, видео

Печатать
Просмотров: 162
Уроки эстрадного вокала в Санкт-Петербурге
-------------------------------------------------------------------------------
                             Alright OK - Boats
-------------------------------------------------------------------------------
Tabbed by:greenmonty97
E-mail:greenmonty97@yahoo.com

Tuning:Standard

This song was featured in the video game sunset overdrive it's a pretty awesome band 
boats is also a really cool
band also listen to the song to get the strumming pattern it might not be right


    Intro\verse
e|---------------------------------------------------------------------------------------|
B|---------------------------------------------------------------------------------------|
G|---------------------------------------------------------------------------------------|
D|---------------------------------------------------------------------------------------|
A|-------------33-----5555555------------------------------------------------------------|
E|---55555555-------------------33-------------------------------------------------------|

e|---------------------------------------------------------------------------|
B|---------------------------------------------------------------------------|
G|---------------------------------------------------------------------------|
D|---------------------------------------------------------------------------|
A|---------------------------------------------------------------------------|
E|---------------------------------------------------------------------------|
pre-chorus
e|------------------------------------------------------------------------------|
B|------------------------------------------------------------------------------|
G|------------------------------------------------------------------------------|
D|---2--------------------------------------------------------------------------|
A|--2---------------------------------------------------------------------------|
E|------------------------------------------------------------------------------|
   Verse (strumming pattern is easy to figure out
e|-------------------------------------------------------------------------------|
B|-------------------------------------------------------------------------------|
G|--------5------7---------------------------------------------------------------|
D|--7-----5------7---------------------------------------------------------------|
A|--7-----3------5---------------------------------------------------------------|
E|--5----------------------------------------------------------------------------|
  well that's pretty much it i didn't tab the solo but it's easy enough to figure out it's
basically the pentatonic scale in the key of A

************************************

| /   slide up
| \   slide down
| h   hammer-on
| p   pull-off
| ~   vibrato
| +   harmonic
| x   Mute note
| b   Bend
| pb  Pre-bend
| br  Bend release
| pbr Pre-bend release
| brb Bend release bend

************************************
Добавлено: 26.04.2015
Вам также может быть интересно:
Другие материалы по этой песне:
  • Аккорды и текст

Страница создана 26.04.2015
http://primanota.ru/boats/alright-ok-chords.htm
Привет, Гость.
Предлагаем пройти революционный курс по гитаре.
Подарок от PrimaNota.Ru, забирай!