PrimaNota.ru - самый крупный в мире бесплатный архив песенных текстов, аккордов, табулатур и нот


Boat Club - Memories - таба, видео

Регистрация Запомнить меня
Войти через:  Facebook Google Twitter Vk Yandex Mail.ru

Boat Club - Memories - таба, видео

Печатать
Просмотров: 37
-------------------------------------------------------------------------------
                             Memories - Boat Club
-------------------------------------------------------------------------------
Tabbed by: Rick Everard
E-mail:



e|--------7------------------7-----------------------------10h12p10----------|
B|--5--7-------------5---7--------------5--------------------------9-7-------|
G|-------------------------------4---6---------------------------------------|
D|---------------------------------------------------------------------------|
A|---------------------------------------------------------------------------|
E|---------------------------------------------------------------------------|

End:

e|------5-----------------------5------------------------5-------------------|
B|--------5--777-5----------------5--777-5-----------------5--777-5----------|
G|----6-----------------------6------------------------6------------6--------|
D|---------------------------------------------------------------------------|
A|---------------------------------------------------------------------------|
E|---------------------------------------------------------------------------|

e|------5-----------------------5------------------------4-------------------|
B|--------5--777-5----------------5--777-5-----------------5--777-5----------|
G|----6-----------------------6------------------------4------------4--------|
D|---------------------------------------------------------------------------|
A|---------------------------------------------------------------------------|
E|---------------------------------------------------------------------------|

1st tab, hopefully is right..


************************************

| /   slide up
| \   slide down
| h   hammer-on
| p   pull-off
| ~   vibrato
| +   harmonic
| x   Mute note
| b   Bend
| pb  Pre-bend
| br  Bend release
| pbr Pre-bend release
| brb Bend release bend

************************************
Добавлено: 10.08.2015
Другие материалы по этой песне:
  • Аккорды и текст

Страница создана 10.08.2015
http://primanota.ru/boat-club/memories-chords.htm
Привет, Гость.
Предлагаем пройти революционный курс по гитаре.
Подарок от PrimaNota.Ru, забирай!