PrimaNota.ru - самый крупный в мире бесплатный архив песенных текстов, аккордов, табулатур и нот


Bo Kaspers Orkester - Floden - аккорды и текст, видео

Регистрация Запомнить меня
Войти через:  Facebook Google Twitter Vk Yandex Mail.ru

Bo Kaspers Orkester - Floden - аккорды и текст, видео

Печатать
Просмотров: 163
Уроки эстрадного вокала в Санкт-Петербурге
Floden
Bo Kaspers Orkester
Verse 1:

    Em                                   Bm
Det rinner en älv, en sugande flod genom livet mitt
    Em
jag uppfylls av mildhet och frid
                 Bm
När jag vadat ut i dess mitt
        Am                                         Em
Och var gång som jag vågat att bada i den blir jag hel och ren
        Bm                                 Em
och jag känner ett lindrande ljus gå genom märg och ben

Chorus:

G                             D
Nu undrar jag varför jag inte badar mer
Am                                            G            D
Varför, varför när jag vet allt det ljusa och goda som det ger
    G                                         D
Det kan nästan verka som jag försöker att ungdå dig
        Am                                        G
Att jag känner mig rädd för nåden och glädjen som
           D
du skänker mig
    C
För underligt
    Em
För underligt

Verse 2:

Em                                          Bm
Det finns en brunn, en källa till liv i min egen kropp
        Em                                      Bm
när jag druckit av den fylls jag av klarhet och saknat hopp
    Am                                            Em
Var gång som jag vågat att dricka ur den blir jag hel och ren
        Bm                                 Em
Och jag känner ett lindrande ljus gå genom märg och ben

Chorus:

G                             D
Nu undrar jag varför jag inte dricker mer
Am                                                G            D
Varför, varför när jag vet att allt det ljusa och goda som det ger
    G                                     D
Det kan nästan verka som jag försöker att undgå dig
        Am                                        G           
att jag känner mig rädd för nåden och glädjen som 
           D
du skänker mig
    C
För underligt
    Em
För underligt

Bridge:

         Bm
Jag vill trotsa det motstånd jag har
                    Am
att ta emot det som gör mig gott
    Bm                                     Am
Det kloka att gå runt och söka det som jag redan fått

....

Chorus:

G                             D
Nu undrar jag varför jag inte badar mer
Am                                            G            D
Varför, varför när jag vet allt det ljusa och goda som det ger
    G                                     D
Det kan nästan verka som jag försöker att undgå dig
        Am                                       G
att jag känner mig rädd för nåden och glädjen som 
           D
du skänker mig
    C
För underligt
    Em            C         Em
För underligt



The tab below is only to show the picking of each chord (not a complete tab for
the song).

0===== means the note should be played stronger and that it "rings out".
(0) means the note is optional. (played softly if played)

Em
e|------------------|------------------|------------------|------------------|
B|----------0=====--|----------0=====--|----------0=====--|----------0=====--|
G|----0-----------0-|----0-----------0-|----0-----------0-|----0-----------0-|
D|-------2----(2)---|-------2----(2)---|-------2----(2)---|-------2----(2)---|
A|------------------|------------------|------------------|------------------|
E|-0----------------|-0----------------|-0----------------|-0----------------|

Bm
e|------------------|------------------|------------------|------------------|
B|----------3=====--|----------3=====--|----------3=====--|----------3=====--|
G|----4-----------4-|----4-----------4-|----4-----------4-|----4-----------4-|
D|-------4----(4)---|-------4----(4)---|-------4----(4)---|-------4----(4)---|
A|-2----------------|-2----------------|-2----------------|-2----------------|
E|------------------|------------------|------------------|------------------|

Am
e|------------------|------------------|------------------|------------------|
B|----------1=====--|----------1=====--|----------1=====--|----------1=====--|
G|----2-----------2-|----2-----------2-|----2-----------2-|----2-----------2-|
D|-------0----(0)---|-------0----(0)---|-------0----(0)---|-------0----(0)---|
A|-0----------------|-0----------------|-0----------------|-0----------------|
E|------------------|------------------|------------------|------------------|

G
e|------------------|------------------|------------------|------------------|
B|----------0=====--|----------0=====--|----------0=====--|----------0=====--|
G|----0-----------0-|----0-----------0-|----0-----------0-|----0-----------0-|
D|-------0----(0)---|-------0----(0)---|-------0----(0)---|-------0----(0)---|
A|------------------|------------------|------------------|------------------|
E|-3----------------|--3---------------|--3---------------|--3---------------|

D
e|----------2=====--|----------2=====--|----------2=====--|----------2=====--|
B|----3-----------3-|----3-----------3-|----3-----------3-|----3-----------3-|
G|-------2----(2)---|-------2----(2)---|-------2----(2)---|-------2----(2)---|
D|-0----------------|--0---------------|--0---------------|--0---------------|
A|------------------|------------------|------------------|------------------|
E|------------------|------------------|------------------|------------------|

C
e|------------------|------------------|------------------|------------------|
B|----------1=====--|----------1=====--|----------1=====--|----------1=====--|
G|----0-----------0-|----0-----------0-|----0-----------0-|----0-----------0-|
D|-------2----(2)---|-------2----(2)---|-------2----(2)---|-------2----(2)---|
A|-3----------------|-3----------------|-3----------------|-3----------------|
E|------------------|------------------|------------------|------------------|
Добавлено: 22.04.2016
Другие материалы по этой песне:
  • Аккорды и текст

Страница создана 22.04.2016
http://primanota.ru/bo-kaspers-orkester/floden-chords.htm
Привет, Гость.
Предлагаем пройти революционный курс по гитаре.
Подарок от PrimaNota.Ru, забирай!