PrimaNota.ru - самый крупный в мире бесплатный архив песенных текстов, аккордов, табулатур и нот


Bo Kaspers Orkester - Bara For Din Skull - таба, видео

Регистрация Запомнить меня
Войти через:  Facebook Google Twitter Vk Yandex Mail.ru

Bo Kaspers Orkester - Bara For Din Skull - таба, видео

Печатать
Просмотров: 146
Tabbed by: Tormod Rogne (Papa Torry)

Picking Pattern:
Intro
     D
E|-----2--2--|
B|-----3--3—-|
G|-----2--2--|   x8
D|--0--------|
A|-----------|
E|-----------|

Verse:
     D   x8     Bm   x4      G   x4    (1.time)    (2.time) D x4
E|-----2--2-|-------------|--------3--3-|----|       -----2--2-|
B|-----3--3-|--------3--3-|--------3--3-|----|       -----3--3-|
G|-----2--2-|--------4--4-|--------0--0-|----|       -----2--2-|
D|--0-------|--------4--4-|-------------|----|   x2  --0-------|
A|----------|--4--2-------|--0----------|--0-|       ----------|
E|----------|-------------|-----3-------|----|       ----------|

Chorus:
           G  x4              D x 4                                Bm x4 
E|-------|---3-3-|---------|----2-2-|    -----------3-3--------|-----------|
B|-------|---3-3-|---------|----3-3-| x2 -----------3-3----2-2-|---3-3-----|
G|-------|---0-0-|---------|----2-2-|(x3 -----------0-0----2-2-|---4-4-----|
D|-0-----|-------|---------|-0------|last--0---------------2-2-|---4-4-----|
A|---4-2-|-------|---------|--------|chorus)-4-2--------0------|-2---------|
E|-------|-3-----|-3--2--0-|--------|    --------3-------------|-----------|

Song with chords:
Verse:
D
En centimeter över stolen.
D
Nu lyfter jag ett tag,
            Bm
och hamnar lite närmre solen.
G                  D
Jag vill må bra idag.
D
Gör det något om jag stjäl av dig,
D
en timme eller två?
          Bm
Med tiden har jag lärt mig,
G                               D
när det börjar att bli dags att gå.

Chorus:
         G
Bara för din skull
           D
kommer jag hem.
            G
Kommer jag halvfull,
              D
jag gör det igen.
       G A Bm      D
Bara för din skull

D
För att hinna med dig.
D
Eller för att räcka till.
       Bm
Måste tiden nån gång stanna,
G                      D
måste världen få stå still.
D
Gör det något om jag dansar,
D
någre valser med en vän?
         Bm
Det var länge sen vi träffades,
G                              D
och har en hel del tid att ta igen

               
         G
Bara för din skull
           D
kommer jag hem.
            G
Kommer jag halvfull,
            D
jag gör det igen.
       G A Bm     D
Bara för din skull

D, D, Bm, G, D

D
En centimeter över stolen.
D
Det blir nog inte fler.
         Bm
För med tiden har jag lärt mig,
G                                     D
när det börjar att bli dags att komma ner

         G
Bara för din skull
            D
kommer jag hem.
            G
Kommer jag halvfull,
             D
jag gör det igen.
              G
Bara för din skull
            D
kommer jag hem.
            G
Kommer jag halvfull,
            D
jag gör det igen.
       G A Bm     D
Bara för din skull

D


Chords:
D:  x00232
Bm: 224432
G:  320022
A:  002220
Добавлено: 17.03.2012
Другие материалы по этой песне:
  • Аккорды и текст

Страница создана 17.03.2012
http://primanota.ru/bo-kaspers-orkester/bara-for-din-skull-chords.htm
Привет, Гость.
Предлагаем пройти революционный курс по гитаре.
Подарок от PrimaNota.Ru, забирай!