PrimaNota.ru - самый крупный в мире бесплатный архив песенных текстов, аккордов, табулатур и нот


Bo Diddley - Todo Tiene Su Final - таба, видео

Регистрация Запомнить меня
Войти через:  Facebook Google Twitter Vk Yandex Mail.ru

Bo Diddley - Todo Tiene Su Final - таба, видео

Печатать
Просмотров: 117
Intro
          C#* - C*         C* - Fm*   C#      C       Fm
e|--------3----------------------------------------------|
B|----------6.---------6-4.---------4--------------------|
G|------------------------------------6.---3--------3-5--|
D|-5-5-5---------5-5-5--------5-5-5----------6-5.-5------|
A|-------------------------------------------------------|
E|-------------------------------------------------------|

           Fm        D#        C#    C   Fm
e|-----4-3----------------------------------|
B|---6-----6.-------4---4.---4--------------|
G|-5------------5-----6--------6------------|
D|----------------6--------------3.--2-5-3--|
A|------------------------------------------|
E|------------------------------------------|

   C#   C Fm     Fm  C    Fm
e|------------------------8-|
B|---------------6-6-5----9-|
G|--------------------------|
D|-3.-2-5-3.----------------|
A|--------------------------|
E|--------------------------|


                Bbm  C                   Fm
Todo tiene su final,    nada dura para siempre,
                  Bbm  C                 Fm
tenemos que recordar      que no existe eternidad.

                  G#   C#
Como el lindo clavel
                  G#   C
solo quiso florecer,
                    Fm  C#        C        Fm
y enseñarnos su belleza     y marchito perecer.

                Bbm  C                   Fm
Todo tiene su final,    nada dura para siempre,
                  Bbm  C                 Fm
tenemos que recordar      que no existe eternidad.

                     G#   C#
Como el campeón mundial,
                     G#   C
dio su vida por llegar
                   Fm    C#          C         Fm
y perder lo más querido      en las masas otro más.


**En la canción, un trombón hace la parte A y otro la parte B.
**Ambas partes suenan al misma tiempo.
Parte A.
e|---------3-4-6.-|
B|-6-6-6-6--------|
G|----------------|
D|----------------|
A|----------------|
E|----------------|
Parte B.
e|----------------|
B|-6-6-5-5-4-3-2.-|
G|----------------|
D|----------------|
A|----------------|
E|----------------|

Bbm        C                 Fm
   Eeh alalelelelele
              e|-----3-3-----3.-|
              B|----------------|
              G|-5-5-----5-5----|
              D|----------------|
              A|----------------|
              E|----------------|

todo tiene su final.

                 Bbm
Todo tiene su final
                     C
si no me quieres dimelo ahora.
                Fm
Todo tiene su final
a mi velorio no venga a llorar, no no.
                 Bbm
Todo tiene su final
        C
ay mamita rica.
                Fm
Todo tiene su final
yo sabía que un día tenía que acabar.
                 Bbm
Todo tiene su final
                        C
punto final todo se acabó.
                Fm
Todo tiene su final
y va a llegar un demonio autonómico y te va a limpiar.
                 Bbm
Todo tiene su final
                   C
porque todo tiene su final
                Fm
Todo tiene su final
echa pa' lante mamá.


*SOLO Teclado*: Bbm - C - Fm (x6)


D# - C# - D# - C#
e|---------------|
B|---------------|
G|----5----------|
D|-8.---8-6-8----|
A|------------6.-|
E|---------------|

C# - B - C# - B

D# - C# - D# - C#
e|---------------|
B|---------------|
G|----5----------|
D|-8.---8-6-8----|
A|------------6.-|
E|---------------|

C# - B - C# - B

   C#  Fm  C# C     Fm
e|------------------1-----------------|
B|------------------1-----------------|
G|------------------1-----------------|
D|---------3.-2.----3-----------------|
A|-4.--3.-----------3-----------------|
E|------------------1-----------------|


**En la canción, un trombón hace la parte A y otro la parte B.
**Ambas partes suenan al misma tiempo.
Parte A.
e|---------3-4-6.-|
B|-6-6-6-6--------|
G|----------------|
D|----------------|
A|----------------|
E|----------------|
Parte B.
e|----------------|
B|-6-6-5-5-4-3-2.-|
G|----------------|
D|----------------|
A|----------------|
E|----------------|

Bbm                     C
  Ay yo perdí lo más querido
    Fm
               cuando perdi a mi mamá.
e|-----3-3-----3.-|
B|----------------|
G|-5-5-----5-5----|
D|----------------|
A|----------------|
E|----------------|


                Bbm
Todo tiene su final
               C
pero seguí pa' lante y pa' lante
                Fm
Todo tiene su final
haz como yo nunca eche pa' atrás
                Bbm
Todo tiene su final
                         C
ni pa' coger impulso, qué va!
                Fm
Todo tiene su final
cuidao que de espalda te pueden atacar.
                Bbm
Todo tiene su final
                   C
echa pa' 'lante cobarde.
                Fm
Todo tiene su final
anda rebúscate el pan.
                Bbm
Todo tiene su final
                   C
oigo una vos que me dice.
                Fm
Todo tiene su final
cuidao tierra va a temblar, tierra va a temblar.



  Bbm      Fm        C        Fm
e|-------------------------------------|
B|-------------------------------------|
G|-6-3------5--------3--------1--------|
D|-----5-3----6-3------5-2------3-3----|
A|----------------3--------3--------3--|
E|-------------------------------------|

   Bbm      Fm       C      Fm
e|-----------------------------|
B|-4---------------------------|
G|---6-3----6-5------5-3-------|
D|-------3------6-3------5-2-3-|
A|-----------------------------|
E|-----------------------------|



Acordes
-------

C#* : 4666XX
C*  : 3555XX
Fm* : 1331XX
Добавлено: 05.05.2012
Другие материалы по этой песне:
  • Аккорды и текст

Страница создана 05.05.2012
http://primanota.ru/bo-diddley/todo-tiene-su-final-chords.htm
Привет, Гость.
Предлагаем пройти революционный курс по гитаре.
Подарок от PrimaNota.Ru, забирай!