PrimaNota.ru - самый крупный в мире бесплатный архив песенных текстов, аккордов, табулатур и нот


Bluvertigo - L'Eretico - таба, бас-таба, видео

Регистрация Запомнить меня
Войти через:  Facebook Google Twitter Vk Yandex Mail.ru

Bluvertigo - L'Eretico - таба, бас-таба, видео

Печатать
Просмотров: 105
Уроки эстрадного вокала в Санкт-Петербурге
		   TITOLO:L'eretico 
AUTORE:Bluvertigo
ALBUM:Acidi E Basi
TABLATURE/ACCORDI FATTE DA: Amoeba

^= hammer on/legato
~= let ring
\= slide
AH= Armonici Artificiali
b1= bend di un tono
.= staccato


riff A
|-----------------------|-------------------------------------------|
|-----------------------|-------------------------------------------|
|--2~~----2^4^5--2^7~\--|--2~~----2^4^5---2^7~-6^7^6^7^6^7\---------|
|--2~~----2^4^5--2^7~\--|--2~~----2^4^5---2^7~-6^7^6^7^6^7\---------|
|-----------------------|-------------------------------------------|
|-----------------------|-------------------------------------------|
fine Riff A
solo perchè non credo al mito del casto voto eterno, anzi desidero ingozzarmi
con il seme del peccato


 cristo a voi non appartiene lui era troppo santo quella notte tra di voi
|--------------------------------------------------------------------|
|---------------------------------------------------------3-3-3------|
|---------\2----------------------------------------------2-2-2------|
|---------\2----------------------------------------------0-0-0------|
|----------0---------------------------------------------------------|
|--------------------------------------------------------------------|

con i chiodi in mano c'ero anch'io, e allora

Riff B
Basta con giovani porci rossi in faccia neri in testa ricchi in tasca
   .  .    .      .     .         .     .        .    .          .
|---------------------------------------------------------------------|
|---------------------------------------------------------------------|
|-10-10----10-----10----------------------------------7----------7----|
|-10-10----10-----10----7---------7-----7--------7----7----------7----|
|--8--8-----8------8----7---------7-----7--------7----5----------5----|
|-----------------------5---------5-----5--------5--------------------|


Basta con giovani porci rossi in faccia neri in testa sporchi e basta
   .  .     .      .    .         .     .        .
|---------------------------------------------------------------------|
|---------------------------------------------------------------------|
|-10-10----10-----10----------------------------------7--7--7---9-9-9-|
|-10-10----10-----10----7---------7-----7--------7----7--7--7---9-9-9-|
|--8--8-----8------8----7---------7-----7--------7----5--5--5---7-7-7-|
|-----------------------5---------5-----5--------5--------------------|
Fine Riff B
e poi mi dicono che sono l'eretico io l'epicureo
e poi mi dicono che sono l'eretico io l'epicureo

Riff A

solo perchè ...

[tutto in AH -------------------------------------fino a qui]
|-----------------------------|----------------------------|
|-----------------------------|----------------------------|
|----------------------7b1----|----------------------------|  Per 2 volte, 
|--7-10-7-10-7-10-7-10-----10-|--7-10-7-10-7-10------------|  la seconda 
|-----------------------------|-----------------7----------| sovrapposta a 
|-----------------------------|-------------------10-8-----|


ho principi  molto   saldi, non prego per dolore è molto
|---------------------------------------------------------|
|---------------------------------------------------------|
|---------------------------------------------------------|
|-------7-7------7----5-5----5--7--7--7---5--5------------|
|-------7-7------7----5-5----5--7--7--7---5--5------------|
|-------5-5------5----3-3----3--5--5--5---3--3------------|


  comodo invocarlo, solo quando ci fa soffrire
|---------------------------------------------------------|
|---------------------------------------------------------|
|-7-7---7----5--5---5--7----7---7--5---5------------------|
|-7-7---7----5--5---5--7----7---7--5---5------------------|
|-5-5---5----3--3---3--5----5---5--3---3------------------|
|---------------------------------------------------------|

Riff B


[allora, adesso ci sarebbe un pezzo da fare con un pedale Whammy, 
dato che io non l'ho, e credo anche alcuni di voi, ma in compenso 
ho un'utilissima e maneggevole leva del tremolo che fa il suo
dovere senza scordare la chitarra o spaccare le corde, consideriamo 
che ogni accordo che scrivo qui di seguito dovrà essere plettrato
tenendo la leva abbassata di circa una ottava, per poi essere 
rilasciata (il meno traumaticamente possibile per le molle del 
tremolo) poi fino a raggiungere il suono dell'accordo. 
P.S.se avete un tastierista nel gruppo, consiglio di far fare al 
tastierista gli stessi accordi tenendoli lunghi con un effetto 
organo]
  
  LA5    DO#m   FA#m      RE    FA    MIb  RE
|---------9-----9--(12)---10---------------10------------|
|---------9----10---------10----10----8----10------------|
|--14-----9-----9---------11----10----8----11------------|
|--14----11----11---------12----10----8----12------------|
|--12----11---------------12-----8----6----12------------|
|---------9---------------10---------------10------------|

[l'assolo per me è troppo difficile, sia da eseguire sia di tabulare
di conseguenza scriverò solo l'inizio, che è anche il più fattibile
e il più semplice da copiare, poi si passa ad un tapping che 
sinceramente non sono sicuro che sia giusto e non saprei come
riuscire a rendere appieno su un formato txt]

[tutto in AH -------------------------------------fino a qui]
|-----------------------------|----------------------------|
|-----------------------------|----------------------------|
|----------------------7b1----|----------------------------|   
|--7-10-7-10-7-10-7-10-----10-|--7-10-7-10-7-10------------|   
|-----------------------------|-----------------7----7-----|  
|-----------------------------|-------------------10-------|

             +   +   
|---------------------------------------------------------|
|---------------------------------------------------------|
|--5--7--9--12-9-12-9-...etc...---------------------------|
|---------------------------------------------------------|
|---------------------------------------------------------|
|---------------------------------------------------------|

per l'assolo finale vale lo stesso discorso di prima

per suggerimenti e/o correzioni:
Amoeba c/o amoeba50@freemail.it
     
Добавлено: 03.10.2013
Другие материалы по этой песне:
  • Аккорды и текст

Страница создана 03.10.2013
http://primanota.ru/bluvertigo/leretico-chords.htm
Привет, Гость.
Предлагаем пройти революционный курс по гитаре.
Подарок от PrimaNota.Ru, забирай!