PrimaNota.ru - самый крупный в мире бесплатный архив песенных текстов, аккордов, табулатур и нот


Bluvertigo - Altre Forme Di Vita - аккорды и текст, видео

Регистрация Запомнить меня
Войти через:  Facebook Google Twitter Vk Yandex Mail.ru

Bluvertigo - Altre Forme Di Vita - аккорды и текст, видео

Печатать
Просмотров: 132
Altre Forme Di Vita
Bluvertigo
		   altre f.d.v.
bluvertigo

intro

fa lab fa do# (x2)


Dm                      F
Un uomo intelligente mettendosi gli occhiali
Bb                          Sol
ha fatto distinzione tra gli esseri animali e quelli vegetali
Dm                         F
in terza media scopro che i regni sono cinque,
Bb                   Sol
fatti a loro volta da generi molto diversi tra loro
C
....diversi tra loro.
Dm                         C
se non esistessero i fiori riusciresti ad immagtinarli?
Bb                          A
se non esistessero i pesci riusciresti ad immaginarli?
C                               B
in altre zone di questo universo  (è facile da realizzare)
C                                  D
esiste tutto ciò che io non riesco ancora a immaginare


Sol             A         C             D      E          (LA  FA#)
E' PRATICAMENTE OVVIO CHE ESISTANO ALTRE FORME DI VITA
E' PRATICAMENTE OVVIO CHE ESISTANO ALTRE FORME DI VITA


Oggi ho fatto tardi, però mi sembra strano
che solamente noi siamo stati generati dal caso
questo è un pò egoista e poco fantasioso
e forse un pò cattolico, e poco divertente
molto presuntuoso, molto limitante
se non ci fossero i funghi riusciresti ad immaginarli?
se non esistessero le alghe riusciresti ad immaginarle?
le stelle che riesco a vedere sono una piccola percentuale
esiste tutto ciò che io non riesco ancora a immaginare

E' PRATICAMENTE OVVIO CHE ESISTANO ALTRE FORME DI VITA
E' PRATICAMENTE OVVIO CHE ESISTANO ALTRE FORME DI VITA



--------------------------------------------------------------------------|
-----5--5--5-----------5--5--5-----------7--7--7-----------7--7--7--------|
--------------7--5--------------7--5--------------9--7--------------9--7--|
--3-----------------3-----------------5-----------------5-----------------|


-----5-------5-------7------7----------------|-------7-----7--------------|
---------------------------------------------|-------------------2-----4--|
--3-----2 3-----4 5----4 5-----7--7--7--7--7-|--6 7-----5-----------------|
---------------------------------------------|----------------0-----2-----|
STACCO IN MI


riff finale

--------|---------------------------|
--------|---------------------------|
--------|--------7-----5--7---------|
--1--1--|--0--0-----7--------1--1---|

     
Добавлено: 29.09.2013
Другие материалы по этой песне:
  • Аккорды и текст

Страница создана 03.03.2012
http://primanota.ru/bluvertigo/altre-forme-di-vita-chords.htm
Привет, Гость.
Предлагаем пройти революционный курс по гитаре.
Подарок от PrimaNota.Ru, забирай!