PrimaNota.ru - самый крупный в мире бесплатный архив песенных текстов, аккордов, табулатур и нот


Blut Aus Nord - Till I Perceive Bifrost - таба, видео

Регистрация Запомнить меня
Войти через:  Facebook Google Twitter Vk Yandex Mail.ru

Blut Aus Nord - Till I Perceive Bifrost - таба, видео

Печатать
Просмотров: 181
Уроки эстрадного вокала в Санкт-Петербурге
-------------------------------------------------------------------------------
        BLUT AUS NORD-  Till I Percieve Bifrost from Ultima Thule 1995
-------------------------------------------------------------------------------
Tabbed by: NihilView
E-mail:

Tuning:E standard

e|---------------------------------------------------------------------------|
B|---------------------------------------------------------------------------| GUIT.1 clean+flanger effect
G|-----------5--------------5----------------3----------------3--------------|
D|--------5----5--------5------5---------6------6--------6---------6---------|
A|----3--------------3-----------------5--------------5----------------------|
E|---------------------------------------------------------------------------|

e|---------------------------------------------------------------------------|  
B|---------------------------------------------------------------------------|  GUIT.2 intro solo
G|--------12-------13h15p13-12---13-12-----10-8-7-8--------------------------|
D|---15----------------------------------------------------------------------| 0:00-0:06
A|---------------------------------------------------------------------------|
E|---------------------------------------------------------------------------|

e|---------------------------------------------------------------------------|
B|---------------------------------------------------------------------------|
G|---------------------------------------------------------------------------| 0:06-0:13
D|--1213--15---13-12-10---8sl-6---8h-1010-8----------------------------------|
A|--------------------------------------------11-10--------------------------|
E|---------------------------------------------------------------------------|

e|---------------------------------------------------------------------------|
B|---------15---16p15-13h15----18-16-15--------------------------------------| 0:13-0:19
G|---17--------------------------------17-----1513-12-13---------------------|
D|---------------------------------------------------------------------------|
A|---------------------------------------------------------------------------|
E|---------------------------------------------------------------------------|

e|---------------------------------------------------------------------------|
B|---------------------------------------------------------------------------| 0:19-0:25
G|--------12-13-1513-12--10-----------------------------12-------------------|
D|--13-15------------------------13p12p10h12-10h12---13----15--13----12------|
A|---------------------------------------------------------------------------|
E|---------------------------------------------------------------------------|

e|---------------------------------------------------------------------------|
B|---------------------------------------------------------------------------| Distortion
G|---------------------------------------------------------------------------|
D|--5-5-5-5---66-6-6-----3-3-3-3---5--5-5-5----------------------------------|  0:25-0:38
A|--3-3-3-5---33-3-3-----5-5-5-5---6--6-6-6----------------------------------|
E|--3-3-3-3---33-3-3-----0-0-0-0---6--6-6-6----------------------------------| 


************************************

| /   slide up
| \   slide down
| h   hammer-on
| p   pull-off
| ~   vibrato
| +   harmonic
| x   Mute note
| b   Bend
| pb  Pre-bend
| br  Bend release
| pbr Pre-bend release
| brb Bend release bend

************************************
Добавлено: 08.07.2015
Вам также может быть интересно:
Другие материалы по этой песне:
  • Аккорды и текст

Страница создана 08.07.2015
http://primanota.ru/blut-aus-nord/till-i-perceive-bifrost-chords.htm
Привет, Гость.
Предлагаем пройти революционный курс по гитаре.
Подарок от PrimaNota.Ru, забирай!