PrimaNota.ru - самый крупный в мире бесплатный архив песенных текстов, аккордов, табулатур и нот


Blut Aus Nord - The Meditant Dialogue With The Stars - таба, видео

Регистрация Запомнить меня
Войти через:  Facebook Google Twitter Vk Yandex Mail.ru

Blut Aus Nord - The Meditant Dialogue With The Stars - таба, видео

Печатать
Просмотров: 91
Blut Aus Nord - The Meditant (Dialogue With the Stars)
Transcribed by Steve Pordon

Tuning: EADGBe
Tempo: around 125 BPM

Notes:
s = sixteenth
e = eighth
e. = dotted eighth
Q = quarter
Q. = dotted quarter
Q(3) = quarter in a triplet
H = half
H. = dotted half
W = whole
W. = dotted whole
b = bend up
r = reverse bend
h = hammer-on
p = pull off
\ = slide down
/ = slide up
~ = vibrato
() around fret number = note held from previous sound, not picked
__ = two notes tied together (example: e___H ties eighth and half)
arp = arpeggiate

The guitars in this are insanely layered--note the *six* guitar parts on top of each other by measure 25.
The transcription is very likely incomplete. Every time I listen to the song, I hear notes I didn't notice
the last time. This is hands down my favorite song, and I hope I've done it justice.

INTRO (20 bars):
 4/4
  Guitar 1 (left)
|--------------------------------|----------------------------------|
|---------8-------6--------------|----------------------------------|
|*7-----------------------7------|-5-h-7---7------------------------|
|*0------------------------------|----------------------------------|
|-0------------------------------|----------------------------------|
|--------------------------------|----------------------------------|
| Q       Q       Q       Q      | e   e   H.                       |
|arp.                            |                                  |
|                                |                                  |
| Guitar 2 (right)               |                                  |
|---------10------8--------------|----------------------------------|
|-10----------------------10-p8--|-8-h-10--10-----------------------|
|*7------------------------------|----------------------------------|
|*0------------------------------|----------------------------------|
|-0------------------------------|----------------------------------|
|--------------------------------|----------------------------------|
  Q       Q       Q       e   e    e   e   H.
 arp.


  Guitar 1 (left)                                                  
|--------------------------------|----------------------------------|
|-10--8---11------10------8-\(4)-|-4-\(3)--3-\(1)--1-/(3)--3--------|
|-7------------------------------|----------------------------------|
|-0------------------------------|----------------------------------|
|--------------------------------|----------------------------------|
|--------------------------------|----------------------------------|
| e   e   Q       Q       e   e  | e   e   e   e   e   e   Q________|
|arp.                            |                                  |
|                                |                                  |
| Guitar 2 (right)               |                                  |
|--------------------------------|----------------------------------|
|-10-8----11------10------8------|----------------------------------|
|-7------------------------------|-5-h-7---7-\(3)--3-p-2---2--------|
|-0------------------------------|-0-------0-------0-------0--------|
|--------------------------------|----------------------------------|
|--------------------------------|----------------------------------|
| e   e   Q       Q       Q      | e   e   e   e   e   e   Q________|
|arp.                            |                                  |
|                                |                                  |
| Guitar 3 (reversed)            |                                  |
|--------------------------------|----------------------------------|
|--------------------------------|----------------------------------|
|--------------------------------|----------------------------------|
|--------------------------------|-3-/(5)--5-\(1)--1-p-0---0--------|
|--------------------------------|----------------------------------|
|--------------------------------|----------------------------------|
                                   e   e   e   e   e   e   Q________
 arp.


  Guitar 1 (left)              x4                               
|--------------------------------|
|(3)-----------------------------|
|-------------------------------*|
|-------------------------------*|
|--------------------------------|
|--------------------------------|
|_W                              |
|                                | (notes held from previous bar)
|                                |
| Guitar 2 (right)               |
|--------------------------------|
|--------------------------------|
|(2)----------------------------*|
|(0)----------------------------*|
|--------------------------------|
|--------------------------------|
 _W


PART 1 (4 bars):
 6/4
  Guitar 1 (left) 
|-----------------------------|----------------------------|
|-------8-10--10-8-11-10~~~~~~|-------8-10--10-8-11-10-10--|
|*10--10----------------------|-10--10--------------------*|
|*----------------------------|---------------------------*|
|-----------------------------|----------------------------|
|-----------------------------|----------------------------|
| Q   e e Q   e  e e  Q.      | Q   e e Q   e  e e  e  Q   |
|                             |                            |
| Guitar 2 (right)            |                            |
|-----------------------------|----------------------------|
|-6---6-5---------------------|-6--6--5--------------------|
|*--------7---7-5-5h7-7-------|---------7---7-5-5h7-------*|
|*----------------------------|---------------------7-----*|
|-----------------------------|----------------------------|
|-----------------------------|----------------------------|
| Q   e e Q   e e e e Q       | Q  e  e Q   e e e e Q      |
|                             |                            |
| Guitar 3 (left)             |                            |
|-----------------------------|----------------------------|
|------------------11-10------|------------------11-10-10--|
|*-----------------------10-9-|---------------------------*|
|*----------------------------|---------------------------*|
|-----------------------------|----------------------------|
|-----------------------------|----------------------------|
|                  e  e  e  e |                  e  e  Q   |
|                             |                            |
| Guitar 4 (doubled L & R)    |                            |
|-----------------------------|----------------------------|
|-----------------------------|----------------------------|
|*3------/-7-----------------\|-3-----/-7---------------\-*|
|*3------/-7-----------------\|-3-----/-7---------------\-*|
|-1------/-5-----------------\|-1-----/-5---------------\--|
|-----------------------------|----------------------------|
  H        W                    H       W


NOTE: --8^8-- in the following sections means hammer from 8 to 10 and
      pull back off. The initial 8 and the 10 are sixteenth notes.
      --6^6-- follows the same pattern, hammering to 8 and back off.

PART 2 (4 bars):
 6/4
  Guitar 1 (left)                                   
|---------------------------|---------------------------|
|-6~~~6^6-5-------6--5--5~~~|-6~~~6^6-5-------6--5--5~~~|
|-------------7-------------|*------------7------------*|
|---------------------------|*-------------------------*| x3
|---------------------------|---------------------------|
|---------------------------|---------------------------|
| Q   sse Q   Q   e  e  Q   | Q   sse Q   Q   e  e  Q   |
|                           |                           |
| Guitar 2 (right)          |                           |
|---------------------------|---------------------------|
|---------------------------|---------------------------|
|-10~~------------5-h7--7~~~|*10~~~-----------5/(7)-7~~*|
|-8~~-8^8-7-----5-----------|*8~~-8^8-7-\(5)-----------*| x3
|---------------------------|---------------------------|
|---------------------------|---------------------------|
| Q   sse Q.    e e  e  Q   | Q   sse Q   Q   e  e  Q   |
|                           |                           |
| Guitar 3 (left)           |                           |
|-----------------3-h5--5~~~|-----------------3-h5--5~~~|
|---------------------------|---------------------------|
|---------------------------|*-------------------------*|
|---------------------------|*-------------------------*| x3
|---------------------------|---------------------------|
|---------------------------|---------------------------|
|                 e  e  Q   |                 e  e  Q   |
|                           |                           |
| Guitar 5 (right)          |                           |
|---------------------------|---------------------------|
|-----------------11p10-10~-|-----------------11p10-10~~|
|---------------------------|*-------------------------*|
|---------------------------|*-------------------------*| x3
|---------------------------|---------------------------|
|---------------------------|---------------------------|
|                 e  e  Q   |                 e  e  Q   |
|                           |                           |
| Guitar 4 (doubled L & R)  |                           |
|---------------------------|---------------------------|
|---------------------------|---------------------------|
|-3-------7---------------\-|*3-------7--------------\-*|
|-3-------7---------------\-|*3-------7--------------\-*| x3
|-1--sl/--5---------------\-|-1--sl/--5--------------\--|
|---------------------------|---------------------------|
  H       W                   H       W


play PART 1 again


 6/4
  Guitar 1 (left)                                   
|---------------------------|---------------------------|
|-6~~~6^6-5-------6--5--5~~~|-6~~~6^6-5-------6--5--5~~~|
|-------------7-------------|*------------7------------*|
|---------------------------|*-------------------------*| x3
|---------------------------|---------------------------|
|---------------------------|---------------------------|
| Q   sse Q   Q   e  e  Q   | Q   sse Q   Q   e  e  Q   |
|                           |                           |
| Guitar 2 (right)          |                           |
|---------------------------|---------------------------|
|---------------------------|---------------------------|
|-10~~~-----------5-h7--7~~~|*10~~~-----------5/(7)-7~~*| <--(on last repeat,
|-8~~-8^8-7-----5-----------|*8~~-8^8-7-\(5)-----------*| x3  hold for a
|---------------------------|---------------------------|    whole note into
|---------------------------|---------------------------|    next bar)
| Q   sse Q.    e e  e  Q   | Q   sse Q   Q   e  e  Q   |      |
|                           |                           |      |
| Guitar 3 (left)           |                           |      |
|-----------------3-h5--5~~~|-----------------3-h5--5~~~| <----
|---------------------------|---------------------------|
|---------------------------|*-------------------------*|
|---------------------------|*-------------------------*| x3
|---------------------------|---------------------------|
|---------------------------|---------------------------|
|                 e  e  Q   |                 e  e  Q   |
|                           |                           |
| Guitar 5 (right)          |                           |
|---------------------------|---------------------------|
|-----------------11p10-10~-|-----------------11p10-10~~|
|---------------------------|*-------------------------*|
|---------------------------|*-------------------------*| x3
|---------------------------|---------------------------|
|---------------------------|---------------------------|
|                 e  e  Q   |                 e  e  Q   |
|                           |                           |
| Guitar 4 (doubled L & R)  |                           |
|---------------------------|---------------------------|
|---------------------------|---------------------------|
|-3-------7---------------\-|*3-------7--------------\-*|
|-3-------7---------------\-|*3-------7--------------\-*| x3
|-1--sl/--5---------------\-|-1--sl/--5--------------\--|
|---------------------------|---------------------------|
  H       W                   H       W


PART 3 (7 bars):
 3/4           4/4
  Guitar 1 (L)
|-------------|----------------|
|-------------|----------------|
|*----5-------|-7-------8\7-7-*|
|*--5---5-----|-7-----x-8\7-7-*| x3
|-8-------8-x-|-5-----x-6\5-5--|
|-------------|----------------|
| e e e e e e | Q.    e e e Q  |
|             |                |
| Guitar 2 (R)|                |
|-------------|----------------|
|-----6-------|----------------|
|*--5---5-----|-7~~~~---8\7-7-*|
|*8-------8-x-|-7-----x-8\7-7-*| x3
|-------------|-5-----x-6\5-5--|
|-------------|----------------|
  e e e e e e   Q.    e e e Q


               PART 4 (9 bars):
 3/4           6/4
  Guitar 1 (L)
|-------------|-------------------------|
|-------------|-------------------------|
|-----5-------|-7-----7-7/8-8\--5-------|
|---5---5-----|-7-----7-7/8-8\x-5-------|
|-8-------8-x-|-5-----5-5/6-6\x-3-------|
|-------------|-5-----5-5/6-6\x-3-------|
| e e e e e e | Q.    e e e e e H       |
|             |                         |
| Guitar 2 (R)|                         |
|-------------|-------------------------|
|-----6-------|-------------------------|
|---5---5-----|-7-----7-7/8-8\--5-------|
|-8-------8-x-|-7-----7-7/8-8\x-5-------|
|-------------|-5-----5-5/6-6\x-3-------|
|-------------|-5-----5-5/6-6\x-3-------|
| e e e e e e | Q.    e e e e e H       |
|             |                         |
| Guitar 3    |                         |
|-------------|-------------------------|
|-------------|-------------------------|
|-------------|-7-----7-7h8-8/1010~~~~~-|
|-------------|-7-----7-7h8-8/1010~~~~~-|
|-------------|-------------------------|
|-------------|-------------------------|
                Q.    e e e e e H 


 6/4
  Guitar 1,2
|-------------------------|-------------------------|
|-------------------------|-------------------------|
|-7-----7-7/8-8\--5-------|-7-----7-7/8-8\--5-------|
|-7-----7-7/8-8\x-5-------|-7-----7-7/8-8\x-5-------|
|-5-----5-5/6-6\x-3-------|-5-----5-5/6-6\x-3-------|
|-5-----5-5/6-6\x-3-------|-5-----5-5/6-6\x-3-------|
| Q.    e e e e e H       | Q.    e e e e e H       |
|                         |                         |
| Guitar 3                |                         |
|-------------------------|-------------------------|
|-------------------------|-------------------------|
|-7-----7-7h8-8/x-10------|-7-----7-7h8-8/x-10------|
|-7-----7-7h8-8/x-10------|-7-----7-7h8-8/x-10------|
|-------------------------|-------------------------|
|-------------------------|-------------------------|
  Q.    e e e e e H         Q.    e e e e e H


  Guitar 1, 2
|-------------------------|-------------------------|
|-------------------------|-------------------------|
|-7-----7-7/8-8\--5-------|-7-----7-7/8-8\7-8-------|
|-7-----7-7/8-8\x-5-------|-7-----7-7/8-8\7-8-------|
|-5-----5-5/6-6\x-3---x-x-|-5-----5-5/6-6\5-6-------|
|-5-----5-5/6-6\x-3---x-x-|-5-----5-5/6-6\5-6-------|
| Q.    e e e e e Q   e e | Q.    e e e e e H       |
|                         |                         |
| Guitar 3                |                         |
|-------------------------|-------------------------|
|-------------------------|-------------------------|
|-7-----7-7h8-8/x-10------|-7-----7-7h8-8\x-5 ------|
|-7-----7-7h8-8/x-10------|-7-----7-7h8-8\x-5-------|
|-------------------------|-------------------------|
|-------------------------|-------------------------|
  Q.    e e e e e H         Q.    e e e e e H


  Guitar 1 (left)                               
|-------------------------|-------------------------|
|-------------------------|-------------------------|
|-7-----7-7/8-8\7-8-------|-7-----7-7/8-8\7-8-------|
|-7-----7-7/8-8\7-8-------|-7-----7-7/8-8\7-8-------|
|-5-----5-5/6-6\5-6-------|-5-----5-5/6-6\5-6-------|
|-5-----5-5/6-6\5-6-------|-5-----5-5/6-6\5-6-------|
| Q.    e e e e e H       | Q.    e e e e e H       |
|                         |                         |
| Guitar 2 (right)        |                         |
|-------------------------|-------------------------|
|-------------------------|-------------------------|
|-7-----7-7/8-8\5-5-------|-7-----7-7/8-8\5-5-------|
|-7-----7-7/8-8\5-5-------|-7-----7-7/8-8\5-5-------|
|-5-----5-5/6-6\3-3-------|-5-----5-5/6-6\3-3-------|
|-5-----5-5/6-6\3-3-------|-5-----5-5/6-6\3-3-------|
| Q.    e e e e e H       | Q.    e e e e e H       |
|                         |                         |
| Guitar 3                |                         |
|-------------------------|-------------------------|
|-------------------------|-------------------------|
|-7-----7-7h8-8\x-5-------|-7-----7-7h8-8\x-5 ------|
|-7-----7-7h8-8\x-5-------|-7-----7-7h8-8\x-5-------|
|-------------------------|-------------------------|
|-------------------------|-------------------------|
  Q.    e e e e e H         Q.    e e e e e H


                           4/4
  Guitar 1,3                                    
|-------------------------|-----------------|
|-------------------------|-----------------|
|-7-----7-7/8-8\7-8-------|-8\--7\--5-------|
|-7-----7-7/8-8\7-8-----x-|-8\--7\--5-------|
|-5-----5-5/6-6\5-6-----x-|-6\--5\--3-------|
|-5-----5-5/6-6\5-6-----x-|-6\--5\--3-------|
| Q.    e e e e e Q.    e | Q   Q   H       |
|                         |                 |
| Guitar 2,4              |                 |
|-------------------------|-3-/-5-/-6-------|
|-------------------------|-3-/-5-/-6-------|
|-7-----7-7/8-8\5-5-------|-5-/-7-/-8-------|
|-7-----7-7/8-8\5-5-----x-|-5-/-7-/-8-------|
|-5-----5-5/6-6\3-3-----x-|-3-/-5-/-6-------|
|-5-----5-5/6-6\3-3-----x-|-3-/-5-/-6-------|
| Q.    e e e e e Q.    e | Q   Q   H       |
|                         |                 |
| Guitar 3                |                 |
|-------------------------|-----------------|
|-------------------------|-----------------|
|-7-----7-7h8-8\x-5-------|-----------------|
|-7-----7-7h8-8\x-5-------|-----------------|
|-------------------------|-----------------|
|-------------------------|-----------------|
  Q.    e e e e e H


PART 5 (2 bars):
 4/4
 Guitar 1 (left)
|--------------------|---------------------|
|--------------------|---------------------|
|-7------------------|(7)------------------|
|-7------------------|(7)------------------|
|-5------------------|(5)------------------|
|-5------------------|(5)------------------|
| W____________________W                   |
|                    |                     |
|Guitar 2 (right)    |                     |
|--------------------|---------------------|
|--------------------|---------------------|
|-7------------------|(7)------------------|
|-7------------------|(7)------------------|
|-5------------------|(5)------------------|
|-5------------------|(5)------------------|
| W____________________W                   |
|                    |                     |
| Guitar 3 (left)    |                     |
|------10\(6)-6-\(5)-|-5\(3)-3/(5)(5)~~~~~~|
|--------------------|---------------------|
|-7~~~---------------|---------------------|
|--------------------|---------------------|
|--------------------|---------------------|
|--------------------|---------------------|
| H    e   e  e   e  | e  e  e  e_H        |
|                    |                     |
| Guitar 4 (right)   |                     |
|--------------------|---------------------|
|------8-\(4)-4-\(3)-|-3\(1)-1/(3)3~~~~~~~~|
|-7~~~---------------|---------------------|
|--------------------|---------------------|
|--------------------|---------------------|
|--------------------|---------------------|
  H    e   e  e   e    e  e  e  e H  


Go back to PART 1 and play all the way through again, but play 
PART 4 twice, skipping PART 5.

SOLO 1:
 4/4
  Guitar 1
|---------------------------------|---------------------------------|
|h10~~~~~~~~~~~~~~~~~~~~--10p-8---|-8-h-10~(10)~~~~~~~~~~~--8-h-10--|
|---------------------------------|---------------------------------|
|---------------------------------|---------------------------------|
|---------------------------------|---------------------------------|
|---------------------------------|---------------------------------|
| H.                      e   e   | e   e___H               e   e   |
|                                 |                                 |
| Guitar 2 (doubled left & right) |                                 |
|---------------------------------|---------------------------------|
|---------------------------------|---------------------------------|
|-7-------------------------------|-7-------------------------------|
|-7-------------------------------|-7-------------------------------|
|-5-------------------------------|-5-------------------------------|
|-5-------------------------------|-5-------------------------------|
  W                                 W


  Guitar 1
|------------------------r--------|---------------------------------|
|-10--b--(11)-----10b(11)(10)-----|---------------------------------|
|---------------------------------|-8-----------7---7-h-8---8-p-7---|
|---------------------------------|---------------------------------|
|---------------------------------|---------------------------------|
|---------------------------------|---------------------------------|
| Q       Q       e   e   Q       | Q.          e   e   e   e   e   |
|                                 |                                 |
| Guitar 2 (doubled left & right) |                                 |
|---------------------------------|---------------------------------|
|---------------------------------|---------------------------------|
|---------------------------------|---------------------------------|
|-8-------------------------------|-5-------------------------------|
|-8-------------------------------|-5-------------------------------|
|-6-------------------------------|-3-------------------------------|
  W                                 W


  Guitar 1
|---------------------------------|---------------------------------|
|---------------------------------|---------------------------------|
|-7---------------8h10----8---7---|---------------------------------|
|---------------------------------|-6-----------------------6-p-5---|
|---------------------------------|---------------------------------|
|---------------------------------|---------------------------------|
| H               s e.    e   e   | H.                      e   e   |
|                                 |                                 |
| Guitar 2 (doubled left & right) |                                 |
|---------------------------------|---------------------------------|
|---------------------------------|---------------------------------|
|---------------------------------|---------------------------------|
|-3-------------------------------|-6-------------------------------|
|-3-------------------------------|-6-------------------------------|
|-1-------------------------------|-4-------------------------------|
  W                                 W


  Guitar 1
|---------------------------------|---------------------------------|
|---------------------------------|---------------------------------|
|---------------------------------|---------2-h-3---3~~~~~~~~~~~~/--|
|-5---------------3-h-5---5-------|(5)------------------------------|
|---------------------------------|---------------------------------|
|---------------------------------|---------------------------------|
| H               e   e   Q_________Q       e   e   H               |
|                                 |                                 |
| Guitar 2 (doubled left & right) |                                 |
|---------------------------------|---------------------------------|
|---------------------------------|---------------------------------|
|-5---------------5---------------|(5)------3-------3---------------|
|-5---------------5---------------|(5)------3-------3---------------|
|-3---------------3---------------|(3)------1-------1---------------|
|-3---------------3---------------|(3)------1-------1---------------|
  H               H_________________Q       Q       H


  Guitar 1                .(pick while bending)
|-15--b--(17)------------(17)(15)-|-15b(17)---------15b(17)-15------|
|----------------------------r----|---------------------------------|
|---------------------------------|---------------------------------|
|---------------------------------|---------------------------------|
|---------------------------------|---------------------------------|
|---------------------------------|---------------------------------|
| Q       H               e   e   | e   Q.          e   e   Q       |
|                                 |                                 |
| Guitar 2 (doubled left & right) |                                 |
|---------------------------------|---------------------------------|
|---------------------------------|---------------------------------|
|-7-------------------------------|-7-------------------------------|
|-7-------------------------------|-7-------------------------------|
|-5-------------------------------|-5-------------------------------|
|-5-------------------------------|-5-------------------------------|
  W                                 W


  Guitar 1
|---------------------------------|---------------------------------|
|-13---------\(10)10/(13)-13\(11)-|-11\(10)-10\(6)--6-/(8)--8-----\-|
|---------------------------------|---------------------------------|
|---------------------------------|---------------------------------|
|---------------------------------|---------------------------------|
|---------------------------------|---------------------------------|
| H               e   e   e   e   | e   e   e   e   e   e   Q       |
|                                 |                                 |
| Guitar 2 (doubled left & right) |                                 |
|---------------------------------|---------------------------------|
|---------------------------------|---------------------------------|
|---------------------------------|---------------------------------|
|-8-------------------------------|-5-------------------------------|
|-8-------------------------------|-5-------------------------------|
|-6-------------------------------|-3-------------------------------|
  W                                 W


  Guitar 1
|---------------------------------|---------------------------------|
|-3---------------4h6-----4---3---|---------------------------------|
|---------------------------------|---------------------------------|
|---------------------------------|-6~~~~~------------------6-p-5---|
|---------------------------------|---------------------------------|
|---------------------------------|---------------------------------|
| H               s e.    e   e   | H.                      e   e   |
|                                 |                                 |
| Guitar 2 (doubled left & right) |                                 |
|---------------------------------|---------------------------------|
|---------------------------------|---------------------------------|
|---------------------------------|---------------------------------|
|-3-------------------------------|-6-------------------------------|
|-3-------------------------------|-6-------------------------------|
|-1-------------------------------|-4-------------------------------|
  W                                 W


  Guitar 1
|---------------------------------|---------------------------------|
|---------------------------------|---------------------------------|
|---------------------------------|---------2-h-3---3~~~~~~~~~~~~---|
|-5-------------\-3-/(5)--5-------|(5)------------------------------|
|---------------------------------|---------------------------------|
|---------------------------------|---------------------------------|
| H               e   e   Q_________Q       e   e   H               |
|                                 |                                 |
| Guitar 2 (doubled left & right) |                                 |
|---------------------------------|---------------------------------|
|---------------------------------|---------------------------------|
|-5---------------5---------------|-5-------3-------3---------------|
|-5---------------5---------------|-5-------3-------3---------------|
|-3---------------3---------------|-3-------1-------1---------------|
|-3---------------3---------------|-3-------1-------1---------------|
  H               H                 Q       Q       H                


  Guitar 1
|---------------------------------|---------------------------------|
|-9-/(10)-10\(9)--9-\(6)--6-\(5)--|-5-\(3)--3-/(5)--5-/(6)--6-/(8)--|
|---------------------------------|---------------------------------|
|---------------------------------|---------------------------------|
|---------------------------------|---------------------------------|
|---------------------------------|---------------------------------|
| e   e   e   e   e   e   e   e   | e   e   e   e   e   e   e   e   |
|                                 |                                 |
| Guitar 2 (doubled left & right) |                                 |
|---------------------------------|---------------------------------|
|---------------------------------|---------------------------------|
|-7-------------------------------|-7-------------------------------|
|-7-------------------------------|-7-------------------------------|
|-5-------------------------------|-5-------------------------------|
|-5-------------------------------|-5-------------------------------|
  W                                 W


  Guitar 1
|---------------------------------|---------------------------------|
|-8-------------------------------|---------------------------------|
|-----10--10-p9---9-\(7)--7-\(6)--|-6-\(3)--3-\(2)--2-/(3)--3-/(5)--|
|---------------------------------|---------------------------------|
|---------------------------------|---------------------------------|
|---------------------------------|---------------------------------|
| e   e   e   e   e   e   e   e   | e   e   e   e   e   e   e   e   |
|                                 |                                 |
| Guitar 2 (doubled left & right) |                                 |
|---------------------------------|---------------------------------|
|---------------------------------|---------------------------------|
|---------------------------------|---------------------------------|
|-8-------------------------------|-5-------------------------------|
|-8-------------------------------|-5-------------------------------|
|-6-------------------------------|-3-------------------------------|
  W                                 W


  Guitar 1
|---------------------------------|---------------------------------|
|---------------------------------|---------------------------------|
|-5-\(3)--3-p-2---2-p-0---0-------|---------------------------------|
|-----------------------------3---|-3-/(5)--5-\(1)--1-p-0---0-------|
|---------------------------------|-----------------------------3---|
|---------------------------------|---------------------------------|
| e   e   e   e   e   e   e   e   | e   e   e   e   e   e   e   e   |
|                                 |                                 |
| Guitar 2 (doubled left & right) |                                 |
|---------------------------------|---------------------------------|
|---------------------------------|---------------------------------|
|---------------------------------|---------------------------------|
|-3-------------------------------|-6-------------------------------|
|-3-------------------------------|-6-------------------------------|
|-1-------------------------------|-4-------------------------------|
  W                                 W


  Guitar 1
|---------------------------------|---------------------------------|
|---------------------------------|---------------------------------|
|---------------------------------|---------------------------------|
|---------------------------------|---------------------------------|
|-3-/(5)--5-------5-/(8)--8-------|-8-/(10)-10/(12)-12~~~~~~~~~~~---|
|---------------------------------|---------------------------------|
| e   e   Q       e   e   Q       | e   e   e   e   H               |
|                                 |                                 |
| Guitar 2 (doubled left & right) |                                 |
|---------------------------------|---------------------------------|
|---------------------------------|---------------------------------|
|-5---------------5---------------|-5-------3-------3-------3-------|
|-5---------------5---------------|-5-------3-------3-------3-------|
|-3---------------3---------------|-3-------1-------1-------1-------|
|-3---------------3---------------|-3-------1-------1-------1-------|
  H               H                 Q       Q       Q       Q


NOTE: "14br" in the next part means pick 14 and very quickly bend up to 15, then back
      down. Almost like a very short and heavy vibrato.

  Guitar 1
|---------------------------------|---------------------------------|
|---------15----------------------|---------15----------------------|
|-----14------14------14--15--14br|-----14------14------14--15--14br|
|-12--------------12--------------|-12--------------12--------------|
|---------------------------------|---------------------------------|
|---------------------------------|---------------------------------|
| e   e   e   e   e   e   e   e   | e   e   e   e   e   e   e   e   |
|                                 |                                 |
| Guitar 2 (doubled left & right) |                                 |
|---------------------------------|---------------------------------|
|---------------------------------|---------------------------------|
|-7-------------------------------|-7-------------------------------|
|-7-------------------------------|-7-------------------------------|
|-5-------------------------------|-5-------------------------------|
|-5-------------------------------|-5-------------------------------|
  W                                 W


  Guitar 1
|---------------------------------|---------------------------------|
|---------15----------------------|---------15----------------------|
|-----14------14------14--15--14br|-----14------14------14--15--14br|
|-12--------------12--------------|-12--------------12--------------|
|---------------------------------|---------------------------------|
|---------------------------------|---------------------------------|
| e   e   e   e   e   e   e   e   | e   e   e   e   e   e   e   e   |
|                                 |                                 |
| Guitar 2 (doubled left & right) |                                 |
|---------------------------------|---------------------------------|
|---------------------------------|---------------------------------|
|---------------------------------|---------------------------------|
|-8-------------------------------|-5-------------------------------|
|-8-------------------------------|-5-------------------------------|
|-6-------------------------------|-3-------------------------------|
  W                                 W


  Guitar 1
|---------------------------------|---------------------------------|
|---------15----------------------|---------16----------------------|
|-----14------14------14~~~~------|-----15------15------15~~~~------|
|-12--------------12--------------|-13--------------13--------------|
|---------------------------------|---------------------------------|
|---------------------------------|---------------------------------|
| e   e   e   e   e   Q.          | e   e   e   e   e   Q.          |
|                                 |                                 |
| Guitar 2 (doubled left & right) |                                 |
|---------------------------------|---------------------------------|
|---------------------------------|---------------------------------|
|---------------------------------|---------------------------------|
|-3-------------------------------|-6-------------------------------|
|-3-------------------------------|-6-------------------------------|
|-1-------------------------------|-4-------------------------------|
  W                                 W


  Guitar 1
|---------------------------------|---------------------------------|
|---------------------------------|---------------------------------|
|-10-h12--12~~~~~-12-p10--10~~~~\-|-3-/(5)--5-/(8)--8-\(7)--7-\(5)--|
|---------------------------------|---------------------------------|
|---------------------------------|---------------------------------|
|---------------------------------|---------------------------------|
| e   e   Q       e   e   Q       | e   e   e   e   e   e   e   e   |
|                                 |                                 |
| Guitar 2 (doubled left & right) |                                 |
|---------------------------------|---------------------------------|
|---------------------------------|---------------------------------|
|-5---------------5---------------|-5-------3-------3-------3-------|
|-5---------------5---------------|-5-------3-------3-------3-------|
|-3---------------3---------------|-3-------1-------1-------1-------|
|-3---------------3---------------|-3-------1-------1-------1-------|
  H               H                 Q       Q       Q       Q


  Guitar 1
|---------------------------------|---------------------------------|
|---------------------------------|---------------------------------|
|/7~~~~~~~~~~~~~~~~~~~~~~~~~~~~~~~|(7)------------------------------|
|---------------------------------|---------------------------------|
|---------------------------------|---------------------------------|
|---------------------------------|---------------------------------|
| W_________________________________W_______________________________|
|                                 |                                 |
| Guitar 2 (doubled left & right) |                                 |
|---------------------------------|---------------------------------|
|---------------------------------|---------------------------------|
|-7-------------------------------|(7)------------------------------|
|-7-------------------------------|(7)------------------------------|
|-5-------------------------------|(5)------------------------------|
|-5-------------------------------|(5)------------------------------|
  W_________________________________W_______________________________ 


  Guitar 1
|---------------------------------|---------------------------------|
|---------------------------------|---------------------------------|
|(7)------------------------------|---------------------------------|
|---------------------------------|(7)------------------------------|
|---------------------------------|---------------------------------|
|---------------------------------|---------------------------------|
|_W_________________________________W                               |
|                                 |                                 |
| Guitar 2 (doubled left & right) |                                 |
|---------------------------------|---------------------------------|
|---------------------------------|---------------------------------|
|(7)------------------------------|(7)------------------------------|
|(7)------------------------------|(7)------------------------------|
|(5)------------------------------|(5)------------------------------|
|(5)------------------------------|(5)------------------------------|
 _W_________________________________W_______________________________ 


  Guitar 2 (doubled left & right)
|---------------------------------|
|---------------------------------|
|(7)------------------------------|
|(7)------------------------------|
|(5)------------------------------|
|(5)------------------------------|
 _W


PART 6 (16 bars):
3/4            4/4               3/4           4/4
 Guitar 1 (left)
|-------------|-----------------|-------------|-----------------|
|-------8-----|-10--------------|-------6-----|-----------------|
|*----7---7---|-----------------|-----3---3---|-5------/7------*|
|*--0-------0-|-----------------|---0-------0-|----------------*| x4
|-0-----------|-----------------|-0-----------|-----------------|
|-------------|-----------------|-------------|-----------------|
| e e e e e e | W               | e e e e e e | H       H       |
|             |                 |             |                 |
|Guitar 2 (R) |                 |             |                 |
|-------------|-----------------|-------------|-----------------|
|-------3-----|-5---------------|-------11----|-----------------|
|*----2---2---|-----------------|-----8---8---|-10-----/12-----*|
|*--0-------0-|-----------------|---0-------0-|----------------*| x4
|-0-----------|-----------------|-0-----------|-----------------|
|-------------|-----------------|-------------|-----------------|
  e e e e e e   W                 e e e e e e   H       H


PART 7 (16 bars):
 Guitar 1 (left)
|-----------------|-----------------|-----------------|-----------------|
|-3-------5-------|-5-------6-------|-10------11------|-10--------------|
|*--2---2---2---2-|---2---2---5---5-|---7---7---10--10|-7--------------*|
|*----0-------0---|-----0-------0---|-----0-------0---|----------------*| x4
|-----------------|-----------------|-----------------|-----------------|
|-----------------|-----------------|-----------------|-----------------|
| e e e e e e e e | e e e e e e e e | e e e e e e e e | W               |
|                 |                 |                 |                 |
|Guitar 2 (right) |                 |                 |                 |
|-----------------|-----------------|-----------------|-5---------------|
|-10------8-------|-8-------6-------|-6-------4-------|-3---------------|
|*--7---7---5---5-|--5---5---3---3--|---3---3---3---2-|----------------*|
|*----0-------0---|----0-------0----|-----0-------0---|----------------*| x4
|-----------------|-----------------|-----------------|-----------------|
|-----------------|-----------------|-----------------|-----------------|
  e e e e e e e e   e e e e e e e e   e e e e e e e e   W


PART 8 (12 bars):
7/4                              4/4
 Guitar 1 (left)
|-----------------------------|-----------------|-----------------|
|-------11--------------------|-13------11------|---------10~-----|
|*----8---8---7~~~~~~~~~~~~~~~|---10--8---8---7-|-7-----7---7~~~-*|
|*--0-------0-0---------------|-----0-------0---|-0---0----------*| x4
|-0---------------------------|-----------------|-----------------|
|-----------------------------|-----------------|-----------------|
| e e e e e e W               | e e e e e e e e | Q   e e e Q.    |
|                             |                 |                 |
|Guitar 2 (right)             |                 |                 |
|-----------------------------|-----------------|-5-------5-------|
|-------6---------------------|-8-------6-------|-3-----3---3-----|
|*----3---3---2~~~~~~~~~~~~~~~|---5---3---3---2-|-----2----------*|
|*--0-------0-----------------|-----0-------0---|---0------------*| x4
|-0---------------------------|-----------------|-----------------|
|-----------------------------|-----------------|-----------------|
| e e e e e e W               | e e e e e e e e | e e e e e Q.    |
|                             |                 |                 |
|Guitar 3                     |                 |                 |
|-----------------------------|-----------------|-----------------|
|-----------------------------|-----------------|-----------------|
|*----------------------------|------/-------\--|----------------*|
|*128-108-7-8-7-----5-5/7-7---|---5-5(8)8-7-7(5)|-5/7(7)---------*| x4
|-----------------------------|-8---------------|-----------------|
|-----------------------------|-----------------|-----------------|
  e e e e e e Q.    e e e Q     e e e e e e e e   e e_H.


 Guitar 1
|-----------------|-----------------|-----------------|-----------------|
|-----3~~~--5~~~--|-6---------6-----|-----3~~~--5~~~--|-6---------6-----|
|*--2-----2---2---|---5---------5---|---2-----2---2---|---5---------5--*|
|*0-----0-------0-|-----3---3-----3-|-0-----0-------0-|-----3---3-----3*|
|-----------------|-------3---------|-----------------|-------3---------|
|-----------------|-----------------|-----------------|-----------------|
| e e e e e e e e | e e e e e e e e | e e e e e e e e | e e e e e e e e |
|                 |                 |                 |                 |
|Guitar 3 (L & R) |                 |                 |                 |
|-----------------|-----------------|-----------------|-----------------|
|-----------------|-----------------|-----------------|-----------------|
|*7---------------|-3---------------|-7---------------|-3--------------*|
|*7---------------|-3---------------|-7---------------|-3--------------*|
|-5---------------|-1---------------|-5---------------|-1---------------|
|-5---------------|-1---------------|-5---------------|-1---------------|
  W                 W                 W                 W


 6/4
  Guitar 1 (left)      /
|-5~~~~~/-8-5-6~~~~\3-3(6)|-5~~~~~/-8-5-6~~~~\3-3(6)|
|-------------------------|-------------------------|
|-------------------------|-------------------------|
|-------------------------|-------------------------|
|-------------------------|-------------------------|
|-------------------------|-------------------------|
| H       e e Q.    e e e | H       e e Q.    e e e |
|                         |                         |
| Guitar 2 (right)        |                         |
|----------------------/--|----------------------/--|
|-3~~~~~/-6-3-4~~~~\1-1(4)|-3~~~~~/-6-3-4~~~~\1-1(4)|
|-------------------------|-------------------------|
|-------------------------|-------------------------|
|-------------------------|-------------------------|
|-------------------------|-------------------------|
| H       e e Q.    e e e | H       e e Q.    e e e |
|                         |                         |
| Guitar 3 (doubled L & R)|                         |
|----------------------\--|----------------------\--|
|----------------------\--|----------------------\--|
|-7-------107-8-----5-5(3)|-7-------107-8-----5-5(3)|
|-7-------107-8-----5-5(3)|-7-------107-8-----5-5(3)|
|-5-------8-5-6-----3-3(1)|-5-------8-5-6-----3-3(1)|
|-5-------8-5-6-----3-3(1)|-5-------8-5-6-----3-3(1)|
| H       e e Q.    e e e | H       e e Q.    e e e |
|                         |                         |
| Guitar 4                |                         |
|------------/------------|------------/------------|
|---------6-6(8)~~~~~~~~~~|---------6-6(8)~~~~~~~~~~|
|-7~~~~~~-----------------|-7~~~~~~-----------------|
|-------------------------|-------------------------|
|-------------------------|-------------------------|
|-------------------------|-------------------------|
| H       e e H.          | H       e e H.          |
|                         |                         |
| Guitar 5                |                         |
|-------------------------|-------------------------|
|-------------------------|-------------------------|
|-2~~~~~~~5-2-3~~~~~0-0-3-|-2~~~~~~~5-2-3~~~~~0-0-3-|
|-------------------------|-------------------------|
|-------------------------|-------------------------|
|-------------------------|-------------------------|
  H       e e Q.    e e e   H       e e Q.    e e e


  Guitar 1 (left)      /                       /
|-5~~~~~/-8-5-6~~~~\3-3(6)|-5~~~~~/-8-5-6~~~~~6(8)8\|
|-------------------------|-------------------------|
|-------------------------|-------------------------|
|-------------------------|-------------------------|
|-------------------------|-------------------------|
|-------------------------|-------------------------|
| H       e e Q.    e e e | H       e e Q.    e e e |
|                         |                         |
| Guitar 2 (right)        |                      /  |
|----------------------/--|-------------------3-3(6)|
|-3~~~~~/-6-3-4~~~~\1-1(4)|-3~~~~~/-6-3-4~~~~~------|
|-------------------------|-------------------------|
|-------------------------|-------------------------|
|-------------------------|-------------------------|
|-------------------------|-------------------------|
| H       e e Q.    e e e | H       e e Q.    e e e |
|                         |                         |
| Guitar 3 (doubled L & R)|                         |
|----------------------\--|------------------\---/--|
|----------------------\--|------------------\---/--|
|-7-------107-8-----5-5(3)|-7-------107-8---8(5)5(7)|
|-7-------107-8-----5-5(3)|-7-------107-8---8(5)5(7)|
|-5-------8-5-6-----3-3(1)|-5-------8-5-6---6(3)3(5)|
|-5-------8-5-6-----3-3(1)|-5-------8-5-6---6(3)3(5)|
| H       e e Q.    e e e | H       e e Q   e e e e |
|                         |                         |
| Guitar 4                |                         |
|------------/------------|------------/------------|
|---------6-6(8)~~~~~~~~~~|---------6-6(8)~~~~~~~~~~|
|-7~~~~~~-----------------|-7~~~~~~-----------------|
|-------------------------|-------------------------|
|-------------------------|-------------------------|
|-------------------------|-------------------------|
| H       e e H.          | H       e e H.          |
|                         |                         |
| Guitar 5                |                         |
|-------------------------|-------------------------|
|-------------------------|-------------------------|
|-2~~~~~~~5-2-3~~~~~0-0-3-|-2~~~~~~~5-2-3~~~3p0-0h2-|
|-------------------------|-------------------------|
|-------------------------|-------------------------|
|-------------------------|-------------------------|
  H       e e Q.    e e e   H       e e Q   e e e e


 4/4
 Guitar 1
|-----------------|-----------------|-----------------|-----------------|
|-----3~~~--5~~~--|-6---------6-----|-----3~~~--5~~~--|-6---------6-----|
|*--2-----2---2---|---5---------5---|---2-----2---2---|---5---------5--*|
|*0-----0-------0-|-----3---3-----3-|-0-----0-------0-|-----3---3-----3*|
|-----------------|-------3---------|-----------------|-------3---------|
|-----------------|-----------------|-----------------|-----------------|
| e e e e e e e e | e e e e e e e e | e e e e e e e e | e e e e e e e e |
|                 |                 |                 |                 |
|Guitar 2 (don't play in repeat)    |                 |                 |
|-5~~~~~~~~~~~~~~~|(5)~~~~~~~~~~~~~~|(5)~~~~~~~~~~~~~~|(5)~~~~~~~~~~~~~~|
|-----------------|-----------------|-----------------|-----------------|
|*----------------|-----------------|-----------------|----------------*|
|*----------------|-----------------|-----------------|----------------*|
|-----------------|-----------------|-----------------|-----------------|
|-----------------|-----------------|-----------------|-----------------|
| W_________________W_________________W_________________W               |
|                 |                 |                 |                 |
|Guitar 3 (L & R) |                 |                 |                 |
|-----------------|-----------------|-----------------|-----------------|
|-----------------|-----------------|-----------------|-----------------|
|*7---------------|-3---------------|-7---------------|-3--------------*|
|*7---------------|-3---------------|-7---------------|-3--------------*|
|-5---------------|-1---------------|-5---------------|-1---------------|
|-5---------------|-1---------------|-5---------------|-1---------------|
  W                 W                 W                 W


 6/4
  Guitar 1 (left)      /
|-5~~~~~/-8-5-6~~~~\3-3(6)|-5~~~~~/-8-5-6~~~~\3-3(6)|
|-------------------------|-------------------------|
|-------------------------|-------------------------|
|-------------------------|-------------------------|
|-------------------------|-------------------------|
|-------------------------|-------------------------|
| H       e e Q.    e e e | H       e e Q.    e e e |
|                         |                         |
| Guitar 2 (right)        |                         |
|----------------------/--|----------------------/--|
|-3~~~~~/-6-3-4~~~~\1-1(4)|-3~~~~~/-6-3-4~~~~\1-1(4)|
|-------------------------|-------------------------|
|-------------------------|-------------------------|
|-------------------------|-------------------------|
|-------------------------|-------------------------|
| H       e e Q.    e e e | H       e e Q.    e e e |
|                         |                         |
| Guitar 3 (doubled L & R)|                         |
|----------------------\--|----------------------\--|
|----------------------\--|----------------------\--|
|-7-------107-8-----5-5(3)|-7-------107-8-----5-5(3)|
|-7-------107-8-----5-5(3)|-7-------107-8-----5-5(3)|
|-5-------8-5-6-----3-3(1)|-5-------8-5-6-----3-3(1)|
|-5-------8-5-6-----3-3(1)|-5-------8-5-6-----3-3(1)|
| H       e e Q.    e e e | H       e e Q.    e e e |
|                         |                         |
| Guitar 4                |                         |
|------------/------------|------------/------------|
|---------6-6(8)~~~~~~~~~~|---------6-6(8)~~~~~~~~~~|
|-7~~~~~~-----------------|-7~~~~~~-----------------|
|-------------------------|-------------------------|
|-------------------------|-------------------------|
|-------------------------|-------------------------|
| H       e e H.          | H       e e H.          |
|                         |                         |
| Guitar 5                |                         |
|-------------------------|-------------------------|
|-------------------------|-------------------------|
|-2~~~~~~~5-2-3~~~~~0-0-3-|-2~~~~~~~5-2-3~~~~~0-0-3-|
|-------------------------|-------------------------|
|-------------------------|-------------------------|
|-------------------------|-------------------------|
  H       e e Q.    e e e   H       e e Q.    e e e


  Guitar 1 (left)      /                       /
|-5~~~~~/-8-5-6~~~~\3-3(6)|-5~~~~~/-8-5-6~~~~~6(8)8\|
|-------------------------|-------------------------|
|-------------------------|-------------------------|
|-------------------------|-------------------------|
|-------------------------|-------------------------|
|-------------------------|-------------------------|
| H       e e Q.    e e e | H       e e Q.    e e e |
|                         |                         |
| Guitar 2 (right)        |                      /  |
|----------------------/--|-------------------3-3(6)|
|-3~~~~~/-6-3-4~~~~\1-1(4)|-3~~~~~/-6-3-4~~~~~------|
|-------------------------|-------------------------|
|-------------------------|-------------------------|
|-------------------------|-------------------------|
|-------------------------|-------------------------|
| H       e e Q.    e e e | H       e e Q.    e e e |
|                         |                         |
| Guitar 3 (doubled L & R)|                         |
|----------------------\--|------------------\---/--|
|----------------------\--|------------------\---/--|
|-7-------107-8-----5-5(3)|-7-------107-8---8(5)5(7)|
|-7-------107-8-----5-5(3)|-7-------107-8---8(5)5(7)|
|-5-------8-5-6-----3-3(1)|-5-------8-5-6---6(3)3(5)|
|-5-------8-5-6-----3-3(1)|-5-------8-5-6---6(3)3(5)|
| H       e e Q.    e e e | H       e e Q   e e e e |
|                         |                         |
| Guitar 4                |                         |
|------------/------------|------------/------------|
|---------6-6(8)~~~~~~~~~~|---------6-6(8)~~~~~~~~~~|
|-7~~~~~~-----------------|-7~~~~~~-----------------|
|-------------------------|-------------------------|
|-------------------------|-------------------------|
|-------------------------|-------------------------|
| H       e e H.          | H       e e H.          |
|                         |                         |
| Guitar 5                |                         |
|-------------------------|-------------------------|
|-------------------------|-------------------------|
|-2~~~~~~~5-2-3~~~~~0-0-3-|-2~~~~~~~5-2-3~~~3p0-0h2-|
|-------------------------|-------------------------|
|-------------------------|-------------------------|
|-------------------------|-------------------------|
  H       e e Q.    e e e   H       e e Q   e e e e


 6/4
  Guitar 1 (left)      /
|-5~~~~~/-8-5-6~~~~\3-3(6)|-5~~~~~/-8-5-6~~~~\3-3(6)|
|-------------------------|-------------------------|
|-------------------------|-------------------------|
|-------------------------|-------------------------|
|-------------------------|-------------------------|
|-------------------------|-------------------------|
| H       e e Q.    e e e | H       e e Q.    e e e |
|                         |                         |
| Guitar 2 (right)        |                      /  |
|----------------------/--|-------------------3-3(6)|
|-3~~~~~/-6-3-4~~~~\1-1(4)|-3~~~~~/-6-3-4~~~~~------|
|-------------------------|-------------------------|
|-------------------------|-------------------------|
|-------------------------|-------------------------|
|-------------------------|-------------------------|
| H       e e Q.    e e e | H       e e Q.    e e e |
|                         |                         |
| Guitar 3 (doubled L & R)|                         |
|----------------------\--|----------------------\--|
|----------------------\--|----------------------\--|
|-7-------107-8-----5-5(3)|-7-------107-8-----5-5(3)|
|-7-------107-8-----5-5(3)|-7-------107-8-----5-5(3)|
|-5-------8-5-6-----3-3(1)|-5-------8-5-6-----3-3(1)|
|-5-------8-5-6-----3-3(1)|-5-------8-5-6-----3-3(1)|
| H       e e Q.    e e e | H       e e Q.    e e e |
|                         |                         |
| Guitar 4                |                         |
|------------/------------|------------/------------|
|---------6-6(8)~~~~~~~~~~|---------6-6(8)~~~~~~~~~~|
|-7~~~~~~-----------------|-7~~~~~~-----------------|
|-------------------------|-------------------------|
|-------------------------|-------------------------|
|-------------------------|-------------------------|
| H       e e H.          | H       e e H.          |
|                         |                         |
| Guitar 5                |                         |
|-------------------------|-------------------------|
|-------------------------|-------------------------|
|-2~~~~~~~5-2-3~~~~~0-0-3-|-2~~~~~~~5-2-3~~~3p0-0h2-|
|-------------------------|-------------------------|
|-------------------------|-------------------------|
|-------------------------|-------------------------|
  H       e e Q.    e e e   H       e e Q   e e e e


  Guitar 1 (left)      /                       /
|-5~~~~~/-8-5-6~~~~\3-3(6)|-5~~~~~/-8-5-6~~~~~6(8)8\|
|-------------------------|-------------------------|
|-------------------------|-------------------------|
|-------------------------|-------------------------|
|-------------------------|-------------------------|
|-------------------------|-------------------------|
| H       e e Q.    e e e | H       e e Q.    e e e |
|                         |                         |
| Guitar 2 (right)        |                         |
|----------------------/--|-----------------5h6-6p5-|
|-3~~~~~/-6-3-4~~~~\1-1(4)|-3~~~~~/-6-3-4~~~--------|
|-------------------------|-------------------------|
|-------------------------|-------------------------|
|-------------------------|-------------------------|
|-------------------------|-------------------------|
| H       e e Q.    e e e | H       e e Q   e e e e |
|                         |                         |
| Guitar 3 (doubled L & R)|                         |
|----------------------\--|------------------\---/--|
|----------------------\--|------------------\---/--|
|-7-------107-8-----5-5(3)|-7-------107-8---8(5)5(7)|
|-7-------107-8-----5-5(3)|-7-------107-8---8(5)5(7)|
|-5-------8-5-6-----3-3(1)|-5-------8-5-6---6(3)3(5)|
|-5-------8-5-6-----3-3(1)|-5-------8-5-6---6(3)3(5)|
| H       e e Q.    e e e | H       e e Q     e e e |
|                         |                         |
| Guitar 4                |                         |
|------------/------------|------------/------------|
|---------6-6(8)~~~~~~~~~~|---------6-6(8)~~~~~~~~~~|
|-7~~~~~~-----------------|-7~~~~~~-----------------|
|-------------------------|-------------------------|
|-------------------------|-------------------------|
|-------------------------|-------------------------|
| H       e e H.          | H       e e H.          |
|                         |                         |
| Guitar 5                |                         |
|-------------------------|-------------------------|
|-------------------------|-------------------------|
|-2~~~~~~~5-2-3~~~~~0-0-3-|-2~~~~~~~5-2-3~~~3p0-0h2-|
|-------------------------|-------------------------|
|-------------------------|-------------------------|
|-------------------------|-------------------------|
  H       e e Q.    e e e   H       e e Q   e e e e


PART 9 (6 bars)
4/4
  Guitar 1
|---------------------------------|---------------------------------|
|-10~~~~~~~~~/13--13~~~~~~~~~\8---|-8~~~~~~~~~~/10--10--------------|
|---------------------------------|-----------------------------10--|
|---------------------------------|---------------------------------|
|---------------------------------|---------------------------------|
|---------------------------------|---------------------------------|
| Q.          e   Q.          e   | Q.          e   Q.          e   |
|                                 |                                 |
| Guitar 4                        |                                 |
|---------------------------------|---------------------------------|
|-------------5---5---------------|-------------8---8---------------|
|-7---------------------------10--|-10--------------------------8---|
|-7---------------------------10--|-10--------------------------8---|
|-5---------------------------8---|-8---------------------------6---|
|-5---------------------------8---|-8---------------------------6---|
| Q.          e   Q.          e   | Q.          e   Q.          e   |
|                                 |                                 |
| Guitar 5 (doubled left & right) |                                 |
|---------------------------------|---------------------------------|
|---------------------------------|---------------------------------|
|-7-----------7---7-----------10--|-10------10--10--10----------8---|
|-7-----------7---7-----------10--|-10------10--10--10----------8---|
|-5-----------5---5-----------8---|-8-------8---8---8-----------6---|
|-5-----------5---5-----------8---|-8-------8---8---8-----------6---|
  Q.          e   Q.          e     Q       e   e   Q.          e 


  Guitar 1                                          ___triplet____
|---------------------------------|---------------------------------|
|-------------11--11-p10--10-rest-|-10------10--12--13----12----10--|
|-10------------------------------|---------------------------------|
|---------------------------------|---------------------------------|
|---------------------------------|---------------------------------|
|---------------------------------|---------------------------------|
| Q.          e   e   e   e   e   | Q       e   e   Q(3)  Q(3)  Q(3)|
|                                 |                                 |
| Guitar 4                        |                                 |
|---------------------------------|---------------------------------|
|---------------------------------|-------------5---5---------------|
|-8---------------8-\(7)--7---x---|-7---------------------------10--|
|-8---------------8-\(7)--7---x---|-7---------------------------10--|
|-6---------------6-\(5)--5---x---|-5---------------------------8---|
|-6---------------6-\(5)--5---x---|-5---------------------------8---|
| H               e   e   e   e   | Q.          e   Q.          e   |
|                                 |                                 |
| Guitar 5 (doubled left & right) |                                 |
|---------------------------------|---------------------------------|
|---------------------------------|---------------------------------|
|-8-----------8---8-\(7)--7---7---|-7-----------7---7-----------10--|
|-8-----------8---8-\(7)--7---7---|-7-----------7---7-----------10--|
|-6-----------6---6-\(5)--5---5---|-5-----------5---5-----------8---|
|-6-----------6---6-\(5)--5---5---|-5-----------5---5-----------8---|
  Q.          e   e   e   e   e     Q.          e   Q.          e


  Guitar 1
|---------------------------------|---------------------------------|
|-------------8---8---------------|---------------------------------|
|-10--------------------------8---|-8-----------7---7-p-5---5-h-7---|
|---------------------------------|---------------------------------|
|---------------------------------|---------------------------------|
|---------------------------------|---------------------------------|
| Q.          e   Q.          e   | Q.          e   e   e   e   e   |
|                                 |                                 |
| Guitar 4                        |                                 |
|---------------------------------|---------------------------------|
|-------------8---8---------------|---------------------------------|
|-10--------------------------8---|-8---------------8-\(7)--7---x---|
|-10--------------------------8---|-8---------------8-\(7)--7---x---|
|-8---------------------------6---|-6---------------6-\(5)--5---x---|
|-8---------------------------6---|-6---------------6-\(5)--5---x---|
| Q.          e   Q.          e   | H               e   e   e   e   |
|                                 |                                 |
| Guitar 5 (doubled left & right) |                                 |
|---------------------------------|---------------------------------|
|---------------------------------|---------------------------------|
|-10----------10--10------10------|-8-----------8---8-------7-------|
|-10----------10--10------10------|-8-----------8---8-------7-------|
|-8-----------8---8-------8-------|-6-----------6---6-------5-------|
|-8-----------8---8-------8-------|-6-----------6---6-------5-------|
  Q.          e   Q       Q         Q.          e   Q       Q


PART 10 (6 bars)
6/4
  Guitar 1
|-------------------------------------------------|
|-------------------------------------------------|
|*7~~~~~~~~~~-------------------------------------|
|*------------------------------------------------|
|-------------------------------------------------|
|-------------------------------------------------|
| W                                               |
|                                                 |
| Guitar 2 (left)                                 |
|-----------------8-------------------------------|
|-------------------------8-----------------------|
|*7~~~~~~~~-----------------------8-------7~~~~~~~|
|*------------------------------------------------|
|-------------------------------------------------|
|-------------------------------------------------|
| H               Q       Q       Q       Q       |
|                                                 |
| Guitar 3 (right)                                |
|-----------------8-------7-----------------------|
|-10------------------------------8-------10------|
|*------------------------------------------------|
|*------------------------------------------------|
|-------------------------------------------------|
|-------------------------------------------------|
| H               Q       Q       Q       Q       |
|                                                 |
| Guitar 4                                        |
|-------------------------------------------------|
|-------------------------------------------------|
|*7---------------10------9-------5-------7-------|
|*7---------------10------9-------5-------7-------|
|-5---------------8-------7-------3-------5-------|
|-5---------------8-------7-------3-------5-------|
  H               Q       Q       Q       Q


4/4
  Guitar 2 (left)
|---------------------------------|-8~~~~~~~------------------------|
|-10~~~~~~------------------------|---------8~~~~~~~----------------|
|---------8~~~~~~~7~~~~~~~5~~~~~~~|-----------------10~~~~~~9~~~~~~*|
|---------------------------------|--------------------------------*|
|---------------------------------|---------------------------------|
|---------------------------------|---------------------------------|
| Q       Q       Q       Q       | Q       Q       Q       Q       |
|                                 |                                 |
| Guitar 3 (right)                |                                 |
|---------------------------------|/8-------------------------------|
|-10~~~~~~------------------------|---------8-------10-p8---8--h10--|
|---------8-------7-------5-------|--------------------------------*|
|---------------------------------|--------------------------------*|
|---------------------------------|---------------------------------|
|---------------------------------|---------------------------------|
| Q       Q       Q       Q       | Q       Q       e   e   e   e   |
|                                 |                                 |
| Guitar 4 (doubled left & right) |                                 |
|---------------------------------|---------------------------------|
|---------------------------------|---------------------------------|
|-7-------7---7---7---7-------7---|-10------10--10--10--10------10-*|
|-5-------5---5---5---5-------5---|-8-------8---8---8---8-------8--*|
|-5-------5---5---5---5-------5---|-8-------8---8---8---8-------8---|
|---------------------------------|---------------------------------|
  Q       e   e   e   Q       e     Q       e   e   e   Q       e    


Play PART 9 again, then PART 10 twice


4/4                        5/4
   Guitar 1 (left)
|-5~~~~~~~~~~~~~~~~~~~~~~~|/8--5--6~~~~~~~~~~~6\(3)-3/(6)-|
|-------------------------|-------------------------------|
|*------------------------|------------------------------*|
|*------------------------|------------------------------*| x8
|-------------------------|-------------------------------|
|-------------------------|-------------------------------|
| W                       | e  e  H           e  e  e  e  |
|                         |                               |
|  Guitar 2 (right)       |                               |
|-------------------------|-------------------------------|
|-3~~~~~~~~~~~~~~~~~~~~~~~|/6--3--4~~~~~~~~~~~4\(1)-1/(4)-|
|*------------------------|------------------------------*|
|*------------------------|------------------------------*| x8
|-------------------------|-------------------------------|
|-------------------------|-------------------------------|
| W                       | e  e  H           e  e  e  e  |
|                         |                               |
|  Guitar 3               |                               |
|-------------------------|-------------------------------|
|-------------------------|-6--6/(8)~~~~~~~~~~~~~~~~~~~~~~|
|*7~~~~~~~~~~~~~~~~~~~~~~~|------------------------------*|
|*------------------------|------------------------------*| x8
|-------------------------|-------------------------------|
|-------------------------|-------------------------------|
| W                       | e  e  W                       |
|                         |                               |
|  Guitar 4               |                               |
|-------------------------|-------------------------------|
|-------------------------|-------------------------------|
|*2~~~~~~~~~~~~~~~~~~~~~~~|-5--2--3~~~~~~~~~~(3)~0--0--3-*|
|*------------------------|------------------------------*| x8
|-------------------------|-------------------------------|
|-------------------------|-------------------------------|
| W                       | e  e  H___________e  e  e  e  |
|                         |                               |
|  Guitar 5 (doubled L&R) |                               |
|-------------------------|-------------------------------|
|-------------------------|-------------------------------|
|*7-----------------------|-10-7--8-----------8\(5)-5\(3)*|
|*7-----------------------|-10-7--8-----------8\(5)-5\(3)*| x8
|-5-----------------------|-8--5--6-----------6\(5)-3\(1)-|
|-5-----------------------|-8--5--6-----------6\(3)-3\(1)-|
  W                         e  e  H           e  e  e  e


6/4
  Guitar 1 (left)
|-5------------------------------|
|--------------------------------|
|--------------------------------|
|--------------------------------|
|--------------------------------|
|--------------------------------|
| W._____________________________|
|                                |
| Guitar 2 (right)               |
|--------------------------------|
|-3------------------------------|
|--------------------------------|
|--------------------------------|
|--------------------------------|
|--------------------------------|
| W._____________________________|
|                                |
| Guitar 3                       |
|--------------------------------|
|--------------------------------|
|-7------------------------------|
|--------------------------------|
|--------------------------------|
|--------------------------------|
| W._____________________________|
|                                |
| Guitar 4                       |
|--------------------------------|
|--------------------------------|
|-2------------------------------|
|--------------------------------|
|--------------------------------|
|--------------------------------|
| W._____________________________|
|                                |
| Guitar 5 (doubled L&R)         |
|--------------------------------|
|--------------------------------|
|-7------------------------------|
|-7------------------------------|
|-5------------------------------|
|-5------------------------------|
  W._____________________________


4/4 (hold previous 8 notes for another 16 bars)
|-(5)-------------|(5)--------------|(5)--------------|(5)--------------|
|-(3)-------------|(3)--------------|(3)--------------|(3)--------------|
|*(7)-------------|(7)--------------|(7)--------------|(7)-------------*|
|*(7)-------------|(7)--------------|(7)--------------|(7)-------------*| x4
|-(5)-------------|(5)--------------|(5)--------------|(5)--------------|
|-(5)-------------|(5)--------------|(5)--------------|(5)--------------|
___W________________W_________________W_________________W_______________


OUTRO (20 bars, then continue and fade):
4/4
 Guitar 1 (left)
|-----------------|-----------------|-----------------|------------------|
|-----10----12----|-13--------13----|-----10----12----|-13--------13-----|
|*------9-----9---|---12--------12--|-------9-----9---|---12--------12--*|
|*--0-----0-----0-|-----10--10----10|---0-----0-----0-|-----10--10----10*| x5
|-0---------------|-------10--------|-0---------------|-------10---------|
|-----------------|-----------------|-----------------|------------------|
| e e e e e e e e | e e e e e e e e | e e e e e e e e | e e e e e e e e  |
|                 |                 |                 |                  |
|Guitar 2 (right) |                 |                 |                  |
|-----------------|-----------------|-----------------|------------------|
|-----3-----5-----|-6---------6-----|-----3-----5-----|-6---------6------|
|*------2-----2---|---5---------5---|-------2-----2---|---5---------5---*|
|*--0-----0-----0-|-----3---3-----3-|---0-----0-----0-|-----3---3-----3-*| x5
|-0---------------|-------3---------|-0---------------|-------3----------|
|-----------------|-----------------|-----------------|------------------|
  e e e e e e e e   e e e e e e e e   e e e e e e e e   e e e e e e e e
Добавлено: 25.08.2015
Вам также может быть интересно:
Другие материалы по этой песне:

Страница создана 01.07.2013
http://primanota.ru/blut-aus-nord/the-meditant-dialogue-with-the-stars-chords.htm
Привет, Гость.
Предлагаем пройти революционный курс по гитаре.
Подарок от PrimaNota.Ru, забирай!