PrimaNota.ru - самый крупный в мире бесплатный архив песенных текстов, аккордов, табулатур и нот


Blur - Ong Ong - аккорды и текст, бас-таба, видео

Регистрация Запомнить меня
Войти через:  Facebook Google Twitter Vk Yandex Mail.ru

Blur - Ong Ong - аккорды и текст, бас-таба, видео

Печатать
Просмотров: 102
Уроки эстрадного вокала в Санкт-Петербурге
Ong Ong
Blur
Ong Ong
blur
The Magic Whip

Tabbed By: Saviano P.
Email: saviano.perry1@gmail.com
Corrections Welcome

  C/G: Cadd9
|-x----x----| 
|-1----1----|
|-0----0----|
|-2----0----|
|-3----3----|
|-3----3----|



Intro: C/G Cadd9 C/G Cadd9 C/G Cadd9 F G C/G Cadd9 C/G x2
 
Verse:
C/G   Cadd9  C/G  Cadd9 C/G  Cadd9 C/G 
I got on a boat on a hot sunny day
F         G            C/G Cadd9 C/G
To get out of this town
C/G           Cadd9 C/G        Cadd9    C/G  Cadd9    C/G       
Cos the tarmac was melting and the people seemed to sway
F           G           C/G Cadd9 C/G
Stuck in the underground


To the isle of the black kites and the wishing tree
I wanna be with you
On the slow boat to Lantau through misty seas
I wanna be with you


Break: 
Guitar 1:
|------------------------------------------------------------------------10b|
|-8s10-1010--8s10-1010--8s9--1010--8s10-1010---8s10-1010-12-10--8s10-8-7----|
|-9s11-1111--9s11-1111--9s11-1111--9s11-1111---9s11-1111-13-11--9s11-9-7----|
|---------------------------------------------------------------------------|
|---------------------------------------------------------------------------|
|---------------------------------------------------------------------------|

Guitar 2: 
|-----------------------------------------------------------------------------------10b-|
|---------------------------------------------------------------------------------------|
|---------------------------------------------------------------------------------------|
|----2----7-----10----12-----14------16-----18------19---19--19-18-16-10-17/19-18-12----|
|-2s3--3s5---5s7---7s9---9s11---11s13--13s15---15s16---16--16---15-13-11-18/20-17-12----|
|---------------------------------------------------------------------------------------|


I pulled out the harbour with recession behind
And I'm feeling the love of you
So you better get to charge until I see you again
You know just what to do

If you're caught up in the gales on the junk boat sea
I wanna be with you
With the pilgrims the mountains in the high trapeze
I wanna be with you

If you're (?) social and (?)
I wanna be with you
On an isle of rainclouds and verdant seas
I will be there with you






Lyrics from Veikko's Blur Page

Добавлено: 31.10.2015
Другие материалы по этой песне:
  • Аккорды и текст

Страница создана 10.10.2015
http://primanota.ru/blur/ong-ong-chords.htm
Привет, Гость.
Предлагаем пройти революционный курс по гитаре.
Подарок от PrimaNota.Ru, забирай!