PrimaNota.ru - самый крупный в мире бесплатный архив песенных текстов, аккордов, табулатур и нот


Blur - I Know - текст песни, таба, бас-таба, видео

Регистрация Запомнить меня
Войти через:  Facebook Google Twitter Vk Yandex Mail.ru

Blur - I Know - текст песни, таба, бас-таба, видео

Печатать
Просмотров: 168
Tabbed By: Saviano Perry
Smashingpumpkins11@gmail.com

Song: I Know
Album: She's So High (Single)
Artist: Blur
Guitarist: Graham Coxon

Intro :                                 End On:
|---------------------------------|     |--------|
|----------------11-9-------------|     |--------|
|---------xxxxx--11-9-------------|     |--------|
|--9h11-9-xxxxx--------------(x8)-|     |-11b----|
|---------------------------------|     |--------|
|---------------------------------|     |--------|

Verse:
|----------------------------------|
|-----------------------9----------|
|-11p9------------------9----------|
|--------11--11p9------------------|
|--------------------11------------|
|----------------------------------|

Chorus:
|-4--x--4---|
|-5--x--5---|
|-6--x--6---|
|-6--x--6---|
|-4--x--4---|
|-----------|

Solo:                           
|--9/7-xxx-7----9/7-------------|       
|--9/7-xxx-7----9/7-------------|       
|-10/8-xxx-8---10/8-------------|       
|-11/9-xxx-9---11/9-11p9-11-----| x4 
|-11/9-xxx-9---11/9-------------|       
|--9/7-xxx-7----9/7-------------|       

Then:
|---------------------------------------------------|
|-9b-7b--9b-7b--9b-11b-13b-15b----------------------|
|-9b-7b--9b-7b--9b-11b-13b-15b----------------------|
|---------------------------------------------------| x2        
|---------------------------------------------------|
|---------------------------------------------------|
Добавлено: 16.09.2013
Другие материалы по этой песне:
  • Аккорды и текст

Страница создана 03.05.2012
http://primanota.ru/blur/i-know-chords.htm
Привет, Гость.
Предлагаем пройти революционный курс по гитаре.
Подарок от PrimaNota.Ru, забирай!