PrimaNota.ru - самый крупный в мире бесплатный архив песенных текстов, аккордов, табулатур и нот


Blur - Bettlebum - таба, видео

Регистрация Запомнить меня
Войти через:  Facebook Google Twitter Vk Yandex Mail.ru

Blur - Bettlebum - таба, видео

Печатать
Просмотров: 124
ok this is similar to the tab of Ash's 'Sometimes' i made a while ago. i looked at the
already here and picked out the parts which sounded right. i then made a few alterations
expanded upon the outro riff. i take no claim to the entire work as i completed it with 
use of the tabs already online and they deserve more praise of attempting the track first.

Anyways enjoy.

Artist: Blur
Song: Beetlebum
album: Blur (1997)

intro:
e---------|
B---------|
G---------|
D---------|
A-x-x-x-x-
E-x-x-x-x-

several times followed by

e---------------------|
B---------------------|
G---------------------|
D---------------------| several times
A-----7-7-7-----7-7-7-|
E-/12\5-5-5-/12\5-5-5-|

Verse:
e---------------------|
B---------------------|
G---------------------|
D---------------------| x4
A-----7-7-7-----7-7-7-|
E-/12\5-5-5-/12\5-5-5-|

e----------------------------|
B----------------------------|
G----------------------------|
D----------------------------| x4
A------10-10-10-----10-10-10-|
E-/12\-8--8--8--/12\8--8--8--|

e---------------------|
B---------------------|
G---------------------|
D---------------------| x4
A----3-3-3----3-3-3---|
E-/7\1-1-1-/7\1-1-1---|

e---------------------|
B---------------------|
G---------------------|
D---------------------|
A----5-5-5----5-5-5---|
E-/7\3-3-3-/7\3-3-3---|

e---------------------|
B---------------------|
G---------------------|
D---------------------|
A----5-5-5----8-8-8---|
E-/7\3-3-3-/7\6-6-6---|

repeat verse but after the secong time play an A chord

e-5-                  e-x-x
B-5-                  B-x-x
G-6-                  G-x-x
D-7- repeatedly until D-x-x
A-7-                  A-x-x
E-5-                  E-x-x

Chorus:
                           C
And when she lets me slip away
    G           A
She turns me on and
Am                F
All my violence gone
            Am
Nothing is wrong
       F
I just slip away and then
A#   C
I am gone
    G            Am
Nothing is wrong
      F          Am
She turns me on
          F
I just slip away and then
A#   C
I am gone

repeat once and then the outro is:

A
He's on, He's on, He's on, yeah
C
He's on, He's on, He's on, yeah
F
He's on, He's on, He's on, yeah
G                        A#
He's on, He's on, He's on, yeah

and this riff played over:

e----------------------|
B-/10------------------|
G-----8-9--------------|
D---------10-10-9\-----|
A------------------5-7-|
E----------------------|

this sequence is repeated a bit, then after a while it becomes purely instrumental, so
until the song abruptly ends.
Добавлено: 30.11.2013
Другие материалы по этой песне:
  • Аккорды и текст

Страница создана 30.11.2013
http://primanota.ru/blur/bettlebum-chords.htm
Привет, Гость.
Предлагаем пройти революционный курс по гитаре.
Подарок от PrimaNota.Ru, забирай!