PrimaNota.ru - самый крупный в мире бесплатный архив песенных текстов, аккордов, табулатур и нот


Blur - All We Want - текст песни, таба, видео

Регистрация Запомнить меня
Войти через:  Facebook Google Twitter Vk Yandex Mail.ru

Blur - All We Want - текст песни, таба, видео

Печатать
Просмотров: 146
ALL WE WANT
BY BLUR
FROM TENDER B-SIDE
1999
------------------------------------------
Tabbed by AAuuddee@aol.com


INTRO: x3 distortion

  A5
-----------------x-x-x-x-x-x-x-x-x-x--
-----------------x-x-x-x-x-x-x-x-x-x--
-----------------x-x-x-x-x-x-x-x-x-x--
--7--7--7--7--7--x-x-x-x-x-x-x-x-x-x--
--7--7--7--7--7--x-x-x-x-x-x-x-x-x-x--
--5--5--5--5--5--x-x-x-x-x-x-x-x-x-x--

  F#5
-----------------x-x-x-x-x-x-x-x-x-x--
-----------------x-x-x-x-x-x-x-x-x-x--
-----------------x-x-x-x-x-x-x-x-x-x--
--4--4--4--4--4--x-x-x-x-x-x-x-x-x-x--
--4--4--4--4--4--x-x-x-x-x-x-x-x-x-x--
--2--2--2--2--2--x-x-x-x-x-x-x-x-x-x--

  F5
-----------------x-x-x-x-x-x-x-x-x-x--
-----------------x-x-x-x-x-x-x-x-x-x--
-----------------x-x-x-x-x-x-x-x-x-x--
--3--3--3--3--3--x-x-x-x-x-x-x-x-x-x--
--3--3--3--3--3--x-x-x-x-x-x-x-x-x-x--
--1--1--1--1--1--x-x-x-x-x-x-x-x-x-x--

  D5
-----------------x-x-x-x-x-x-x-x-x-x--
-----------------x-x-x-x-x-x-x-x-x-x--
--7--7--7--7--7--x-x-x-x-x-x-x-x-x-x--
--7--7--7--7--7--x-x-x-x-x-x-x-x-x-x--
--5--5--5--5--5--x-x-x-x-x-x-x-x-x-x--
-----------------x-x-x-x-x-x-x-x-x-x--


VERSE1:

       A5            F#5           F5            D5
--x-x-----------x-x-----------x-x-----------x-x-----------
--x-x-----------x-x-----------x-x-----------x-x-----------
--x-x-----------x-x-----------x-x-----------x-x--7--7--7--
--x-x--7--7--7--x-x--4--4--4--x-x--3--3--3--x-x--7--7--7--
--x-x--7--7--7--x-x--4--4--4--x-x--3--3--3--x-x--5--5--5--
--x-x--5--5--5--x-x--2--2--2--x-x--1--1--1--x-x-----------

*      A5            F#5           F5            D5
--x-x-----------x-x-----------x-x-----------x-x-----------
--x-x-----------x-x-----------x-x-----------x-x-----------
--x-x-----------x-x-----------x-x-----------x-x--7--7--7--
--x-x--7--7--7--x-x--4--4--4--x-x--3--3--3--x-x--7--7--7--
--x-x--7--7--7--x-x--4--4--4--x-x--3--3--3--x-x--5--5--5--
--x-x--5--5--5--x-x--2--2--2--x-x--1--1--1--x-x-----------

       D5
--x-x------------------
--x-x------------------
--x-x--7--7--7---7--7--
--x-x--7--7--7---7--7--
--x-x--5--5--5---5--5--
--x-x------------------


*2nd guitar with effects starts here playing this:

----------------------------------------------------
----------------------------------------------------
----------------------------------------------------
--------------------------4--4--------3--3----------
--4--5--6--7--6--5--4~---------4-----------3--------
-----------------------2---------2--5--------1--5~--


CHORUS:
  C       G       Bb     Am        G                        
------------------------------------------------------------------
-----------------------------------0---------------------0--------
------0-------0-------3--2p-----2--0---------------------0--------
----2---2---0---0---3---------2------3--0--------0--2--3---3--0---
--3-------2-------1---------0----------------0h2------------------
-------------------------------------------3--------------------3-

--x--x-------
--x--x-------
--x--x--12s--
--x--x--12s-- x2
--x--x--10s--
--x--x-------


PLAY THE INTRO ONCE


VERSE2:

       A5            F#5           F5            D5
--x-x-----------x-x-----------x-x-----------x-x-----------
--x-x-----------x-x-----------x-x-----------x-x-----------
--x-x-----------x-x-----------x-x-----------x-x--7--7--7--
--x-x--7--7--7--x-x--4--4--4--x-x--3--3--3--x-x--7--7--7--
--x-x--7--7--7--x-x--4--4--4--x-x--3--3--3--x-x--5--5--5--
--x-x--5--5--5--x-x--2--2--2--x-x--1--1--1--x-x-----------

       A5            F#5           F5            D5
--x-x-----------x-x-----------x-x-----------x-x-----------
--x-x-----------x-x-----------x-x-----------x-x-----------
--x-x-----------x-x-----------x-x-----------x-x--7--7--7--
--x-x--7--7--7--x-x--4--4--4--x-x--3--3--3--x-x--7--7--7--
--x-x--7--7--7--x-x--4--4--4--x-x--3--3--3--x-x--5--5--5--
--x-x--5--5--5--x-x--2--2--2--x-x--1--1--1--x-x-----------

       D5
--x-x------------------
--x-x------------------
--x-x--7--7--7---7--7--
--x-x--7--7--7---7--7--
--x-x--5--5--5---5--5--
--x-x------------------


2nd guitar with effects plays this in the same time:

----------------------------------------------------
----------------------------------------------------
----------------------------------------------------
--------------------------4--4--------3--3----------
--4--5--6--7--6--5--4~---------4-----------3--------
-----------------------2---------2--5--------1--5~--


CHORUS


BRIDGE: clean sound

-----------------------------------------------------
-----------------------------------------------------
-----------------------------------------------------
--7--7--7--7--7--5--5--4--4--0--0--------------------
--0--0--0--0--0--0--0--0--0-------0--0--0--0--0------
----------------------------------5--5--3--3--3-*5s--

*2nd guitar starts here playing this part:

--------------------------------------
--10s12--15--13--11--10--8--5s3--5s3--
---9s11--14--12--10---9--7--5s3--5s3--
----------------------------5s3--5s3--
--------------------------------------
--------------------------------------

-----------------------------------
--17--15--13--11--10--8--5s3--5s3--
--16--14--12--10---9--7--5s3--5s3--
-------------------------5s3--5s3--
-----------------------------------
-----------------------------------

   A5          F#5        F5         D5
----------------------------------------------
----------------------------------------------
-------------------------------------7--7--7--
----7--7--7----4--4--4----3--3--3----7--7--7--
----7--7--7----4--4--4----3--3--3----5--5--5--
----5--5--5----2--2--2----1--1--1-------------

      A5            F#5           F5            D5
--x-x-----------x-x-----------x-x-----------x-x-----------
--x-x-----------x-x-----------x-x-----------x-x-----------
--x-x-----------x-x-----------x-x-----------x-x--7--7--7--
--x-x--7--7--7--x-x--4--4--4--x-x--3--3--3--x-x--7--7--7--
--x-x--7--7--7--x-x--4--4--4--x-x--3--3--3--x-x--5--5--5--
--x-x--5--5--5--x-x--2--2--2--x-x--1--1--1--x-x-----------

       D5
--x-x------------------
--x-x------------------
--x-x--7--7--7---7--7--
--x-x--7--7--7---7--7--
--x-x--5--5--5---5--5--
--x-x------------------

  C       G       Bb     Am        G                        
------------------------------------------------------------------
-----------------------------------0---------------------0--------
------0-------0-------3--2p-----2--0---------------------0--------
----2---2---0---0---3---------2------3--0--------0--2--3---3--0---
--3-------2-------1---------0----------------0h2------------------
-------------------------------------------3--------------------3-

--x--x-------
--x--x-------
--x--x--12s--
--x--x--12s-- x2
--x--x--10s--
--x--x-------


CHORUS:

  C       G       Bb     Am        G                        
------------------------------------------------------------------
-----------------------------------0---------------------0--------
------0-------0-------3--2p-----2--0---------------------0--------
----2---2---0---0---3---------2------3--0--------0--2--3---3--0---
--3-------2-------1---------0----------------0h2------------------
-------------------------------------------3--------------------3-

--x--x-------
--x--x-------
--x--x--12s--
--x--x--12s--
--x--x--10s--
--x--x-------

  C       G       Bb     Am         G                        
-----------------------------------(----------------------)
-----------------------------------(0---------------------)
------0-------0-------3--2p-----2--(0---------------------)repeat
----2---2---0---0---3---------2----(--3--0--------0--2--3-)the()
--3-------2-------1---------0------(----------0h2---------)
-----------------------------------(--------3-------------)

----------------------------
--0-------------------------
--0---------12--12--12--12--
----3--0----12--12--12--12--
------------10--10--10--10--
---------3------------------


ENDING:

      A5            F#5           F5         A  
--x-x-----------x-x-----------x-x-----------------------------------
--x-x-----------x-x-----------x-x-----------------------------------
--x-x-----------x-x-----------x-x-----------------------------------
--x-x--7--7--7--x-x--4--4--4--x-x--3--3--3---(7)--------------------
--x-x--7--7--7--x-x--4--4--4--x-x--3--3--3---(7)repeat until the end
--x-x--5--5--5--x-x--2--2--2--x-x--1--1--1---(5)--------------------

THE END


ENJOY!!!







--part1_40.2f709b7.2736c0e8_boundary--

     
Добавлено: 12.06.2013
Другие материалы по этой песне:
  • Аккорды и текст

Страница создана 12.06.2013
http://primanota.ru/blur/all-we-want-chords.htm
Привет, Гость.
Предлагаем пройти революционный курс по гитаре.
Подарок от PrimaNota.Ru, забирай!