PrimaNota.ru - самый крупный в мире бесплатный архив песенных текстов, аккордов, табулатур и нот


Blumenfeld Hugh - Cedars of Lebanon - таба, видео

Регистрация Запомнить меня
Войти через:  Facebook Google Twitter Vk Yandex Mail.ru

Blumenfeld Hugh - Cedars of Lebanon - таба, видео

Печатать
Просмотров: 123
Date: Fri, 12 Apr 96 17:30:16 EDT
From: slehman@MIT.EDU (Scott A. Lehman)

CEDARS OF LEBANON - Hugh Blumenfeld
From the album "The Strong In Spirit"
(c) Grace Records

Am               G6     G
E|-----------------------|-3-|     -\
B|------------------1--0-|---|      |
|                       |        Theme (2x)
A|-0--0-------0--0-------|---|      |
E|-------0h3-------------|---|     -/

Am                G
Oh build a box for a boy who's gone
F                    E
Cedar cypress and olive
Am                   G
Build a box for a boy who's coming home
F          E       (Theme 2x)
All the wood of lebanon

And build it long as a year of peace
Cedar cypress and olive
Build it wide as the war torn streets
All the wood of lebanon

And drape no flag across the top
Cedar cypress and olive
Drape no flag and fire no shots
All the wood of lebanon

And set him deep as the blood in the land
Cedar cypress and olive
Am    G   Am
And we'll plant the tall trees again
G
In the desert sand
All the wood of lebanon

[violin/cello solo over verse chords]
Am       G           F     E  Am             G     F  E/Am
E|----------------------------------------------------1--0sl5-|
B|----------------------------------1--0--1--3--1-------------|
G|-------------------------------2-----------------2----------|
D|----------------------0--3--2-------------------------------|
A|-0--0--0--2-----2--3----------------------------------------|
E|-------------3----------------------------------------------|

[repeat 1st verse]
F          E       (Theme 1x)
All the wood of lebanon
F          E       (Theme 1x)
All the wood of lebanon

F E F E Am
Добавлено: 08.04.2012
Другие материалы по этой песне:
  • Аккорды и текст

Страница создана 08.04.2012
http://primanota.ru/blumenfeld-hugh/cedars-of-lebanon-chords.htm
Привет, Гость.
Предлагаем пройти революционный курс по гитаре.
Подарок от PrimaNota.Ru, забирай!