PrimaNota.ru - самый крупный в мире бесплатный архив песенных текстов, аккордов, табулатур и нот


Bluetones - Surrendered - аккорды и текст, видео

Регистрация Запомнить меня
Войти через:  Facebook Google Twitter Vk Yandex Mail.ru

Bluetones - Surrendered - аккорды и текст, видео

Печатать
Просмотров: 126
Surrendered
Bluetones
-----------------------------------------------------------------------------
                             Surrendered - The Bluetones
-----------------------------------------------------------------------------
Tabbed by: Robert McMillan
Email: mcmillan(underscore)ra(at)hotmail.com

This is from the accoustic version on the "B" side of Head on a Spike.

Tuning: Standard (Capo Fret 4) Everything is shown relative to that...

Chords Used:

G:  320003
Bm: x24432
Am: x02210
C:  x32010
D:  xx0232
D7: xx0212



Intro
=====

   G                        Bm              Am            Bm            C
e|--------------------------------------------------------------------------|
B|--------------------------------------------------------------------------|
G|-----------------------------------------------------0-2-4-4-4-4--4-0-----|
D|-------0------------0------0-0--0-2-4-0----2-2-0-2-4------------------2---|
A|-2-0-2--------2-0-2-------------------------------------------------------|
E|--------------------------------------------------------------------------|

  C
e|-----------|
B|-----------|
G|-----------|
D|-0-2-4-0---|
A|-----------|
E|-----------|

   G                        Bm              Am            Bm            C
e|--------------------------------------------------------------------------|
B|--------------------------------------------------------------------------|
G|-----------------------------------------------------0-2-4-4-4-4--4-0-----|
D|-------0------------0------0-0--0-2-4-0----2-2-0-2-4------------------2---|
A|-2-0-2--------2-0-2-------------------------------------------------------|
E|--------------------------------------------------------------------------|

  C
e|-----------|
B|-----------|
G|-----------|
D|-2-2-0-----|
A|-------2---|
E|-----------|


Verse(s)
========

G
You cast aspersions
Bm
You run me down
Am
You like to see those little 
Bm              C
Veins pop in my brow

G
You contradict me
Bm
You wear me out
Am
But it's all sufferance That
Bm               C
I can't live without, no

   G                        Bm              Am            Bm            C
e|--------------------------------------------------------------------------|
B|--------------------------------------------------------------------------|
G|-----------------------------------------------------0-2-4-4-4-4--4-0-----|
D|-------0------------0------0-0--0-2-4-0----2-2-0-2-4------------------2---|
A|-2-0-2--------2-0-2-------------------------------------------------------|
E|--------------------------------------------------------------------------|

  C
e|-----------|
B|-----------|
G|-----------|
D|-2-2-0-----|
A|-------2---|
E|-----------|



G
You suffocate me
Bm
You sieze control
Am
You tie me in a bow
Bm                C
And swallow me up whole

G
There's no sensation
Bm
As I succumb
Am
It's irresistable to
Bm                C
Live beneath your thumb



Pre Chorus
==========
Bm                C
Life bites down harder
                         Bm
It sinks it's teeth right in
                            C
Leaves the sweetest scar of all


Chorus (Repeat twice)
======================
G        D
Surrendered
            C
All part to you
   D7          G
To play as you choose
         D
Surrendered
            C
My heart to you
   D7          G
To break and abuse

   G                        Bm              Am            Bm            C
e|--------------------------------------------------------------------------|
B|--------------------------------------------------------------------------|
G|-----------------------------------------------------0-2-4-4-4-4--4-0-----|
D|-------0------------0------0-0--0-2-4-0----2-2-0-2-4------------------2---|
A|-2-0-2--------2-0-2-------------------------------------------------------|
E|--------------------------------------------------------------------------|

  C
e|-----------|
B|-----------|
G|-----------|
D|-2-2-0-----|
A|-------2---|
E|-----------|




Verses (as Above)
=================

I'm not a rich man
I'm all I've got
I had a purpose but 
I can't remember what

Oh, the consequences
May have crossed my mind
But I am positively
Blissful with my lot


Pre Chorus
==========
Bm                C
Life bites down harder
                         Bm
It sinks it's teeth right in
                            C
Leaves the sweetest scar of all


Chorus (Repeat Until you are bored)
===================================
G        D
Surrendered
            C
All part to you
   D7          G
To play as you choose
         D
Surrendered
            C
My heart to you
   D7          G
To break and abuse

Добавлено: 23.06.2012
Другие материалы по этой песне:
  • Аккорды и текст

Страница создана 23.06.2012
http://primanota.ru/bluetones/surrendered-chords.htm
Привет, Гость.
Предлагаем пройти революционный курс по гитаре.
Подарок от PrimaNota.Ru, забирай!