PrimaNota.ru - самый крупный в мире бесплатный архив песенных текстов, аккордов, табулатур и нот


Bluetones - Putting Out Fires - текст песни, таба, видео

Регистрация Запомнить меня
Войти через:  Facebook Google Twitter Vk Yandex Mail.ru

Bluetones - Putting Out Fires - текст песни, таба, видео

Печатать
Просмотров: 118
Авторы: Scott Morriss, Mark Morriss, Eds Chesters, Adam Devlin

Lead guitar only.
This is a straight export from the Guitar Pro version so it
probably isn't very readable.  If you don't have GP and this
file is too confusing then just ask and I'll upload a Power
Tab version that you can use for free.


                          Putting Out Fires                           


                                                         The Bluetones
Lead Guitar



      Intro                                                  
      E     E  E.  S E  E  E.  S    E  E  E.  S E  E  E.  S  
E||------------3-----------3-----|--------3-----------3-----|
B||----------------3-----------3-|------------3-----------3-|
G||*--------2-----------2--------|-----0-----------0--------|
D||*--0--------------0-----------|--0-----------0-----------|
A||------------------------------|--------------------------|
E||------------------------------|--------------------------|


  E  E  E.  S E  E  E.  S    E  E  E.  S S  S S S  S S S S    
--------3-----------3-----|--------3------------------------||
------------3-----------3-|------------3------3------3---3--||
-----0-----------0--------|-----0--------------------------*||
--3-----------3-----------|--2-----------2h-3---2h-3---3---*||
--------------------------|---------------------------------||
--------------------------|---------------------------------||


  W                   W                   E  E  Q    S  S E  Q     
--2----------------|--3----------------|--------------------------|
--3----------------|--3----------------|--------1---------1--1----|
--2----------------|--3----------------|--------0------------0----|
--0----------------|--3----------------|--2--2--2----2h-3----2----|
-------------------|-------------------|--3--3--------------------|
-------------------|-------------------|--------------------------|


                            Main Riff                       
  Q    E.  S S S E  Q       E         E  E  E  E  E  E  E   
-------------------------|---------------------------------|
--3----3---------3--3----|------------3--------------------|
--0--------0---0---------|------------------------2--------|
--4----------4-----------|--0------------3--2--3-----3--0--|
-------------------------|---------------------------------|
-------------------------|---------------------------------|


  E  E  E  E  E  E  E  E     Q    E  S S S  S S S S  S E   
-----3--------1-----------|-------------------------------|
-----------------3--------|---------------------1---------|
--3-----2--3--------3--2--|--0----0--x-0------0---2p-0----|
--------------------------|----------x---0h-2-0--------2--|
--------------------------|-------------------------------|
--------------------------|-------------------------------|


  Q    Q     E  Q    E     E  E  E  S S S S S  S E.  S  
------------------------|--0--2------------------------|
----------------1----1--|--3-----3----1---1------3---3-|
----------------0----0--|-------------0---0-2h-4-------|
--0----0h----0--3----2--|-----------0---2--------------|
----------------3----3--|-----------0------------------|
------------------------|------------------------------|


   E      S.   S   E   Q     Q    S T    H         E  E  E  E   
--------------------------------------|--5---------5--5-----3--|
--10----(10)--10------10--------------|--5h--------5--5-----3--|
--12pb--(12)b-12b--L--10--------------|--5h--------5--5-----0--|
----------------------------12--------|------------------------|
--------------------------------------|------------------------|
--------------------------------------|------------------------|


                      Verse 1                                        
  W                   Q.      Q    E  E  E     Q.     Q    E  E  E   
--L----------------|--2---------------2-----|--1--------------8-----|
--L----------------|--3------------------3--|--------------------6--|
--L----------------|--2---------------------|-----------------------|
-------------------|--0-------L----0--------|--0------L----0--------|
-------------------|------------------------|-----------------------|
-------------------|------------------------|-----------------------|


  Q.     Q    E  E  E     E  E  E  E  E  E  Q     
-----------------8-----|--------8-----0----------|
--6-----------------6--|--L--6-----------6-------|
--5--------------------|-----------5-------------|
--------------0--------|--0----------------------|
-----------------------|-------------------------|
-----------------------|-------------------------|


  H.           E  E     Q    E  E  E  E  E  E   
---------------------|-------------------8-----|
--7------------7-----|--6-------6--L--------6--|
--7---------------7--|-------7--------7--------|
--7------------------|-------------------------|
---------------------|-------------------------|
---------------------|-------------------------|


  Q.     E  E  E  E  E     E  E  E  E  E  E  Q     
------------------8-----|--------8-----0----------|
---------------------6--|--L--6-----------6-------|
--7---------------------|-----------5-------------|
------------0--0--------|--0----------------------|
------------------------|-------------------------|
------------------------|-------------------------|


   Q    E   S  S E   Q.         Q     E   S  S E   E  E  E   
--10----------10-L----------|---------------10-L------------|
--10-------10-------10------|--10----10--10-------10--------|
---9----9---9--------9------|---9-----9---------------9-----|
----------------------------|-------------------------------|
----------------------------|-------------------------------|
----------------------------|-------------------------------|


   E  E  Q     E  E  Q       E  E  E  E  E  Q    E   
--------------10----------|-------------------------|
---8--L-----------8-------|-----3-------------------|
---9-----9-----------9----|--------0-----L----------|
--10----------------------|--5--------0--4--5----L--|
--------------------------|-------------------------|
--------------------------|-------------------------|


  W                   E  S S E  S S S S E  S S S S  
--0----------------|-----0--------------0----0---0-|
--0----------------|-------2-L----2-L------0---0---|
--0----------------|------------2-----2------------|
--2----------------|--2----------------------------|
-------------------|--0----------------------------|
-------------------|-------------------------------|


  W                   E  S S S S S S S S S S E  E   
--0----------------|-----0---0-----------0---0-----|
--0----------------|-------------2-----------------|
--0----------------|-------2---2---2-L-2---2-------|
--2----------------|--2----------------------------|
-------------------|--0----------------------------|
-------------------|-------------------------------|


  W                    E  E   E   S S S S  Q.      
--0----------------|------0-------------0---------|
--0----------------|--10-----10-----------10------|
--0----------------|---9------------9-L-----------|
--2----------------|--11---------11---------------|
-------------------|------------------------------|
-------------------|------------------------------|


  Q    E.  S E  E  Q       Q    E.  S S S E  Q     
--0--------0-L----------|--0--------0-L-----------|
--2----2--------2--2----|--3----3---------3--L----|
--3---------------------|--0------------0---------|
--4---------------------|-------------------------|
------------------------|-------------------------|
------------------------|-------------------------|


                      Main Riff                       
  W                   E         E  E  E  E  E  E  E   
--3----------------|---------------------------------|
--3----------------|------------3--------------------|
--0----------------|------------------------2--------|
-------------------|--0------------3--2--3-----3--0--|
-------------------|---------------------------------|
-------------------|---------------------------------|


  E  E  E  E  E  E  E  E     Q    E  S S S  S S S S  S E   
-----3--------1-----------|-------------------------------|
-----------------3--------|---------------------1---------|
--3-----2--3--------3--2--|--0----0--x-0------0---2p-0----|
--------------------------|----------x---0h-2-0--------2--|
--------------------------|-------------------------------|
--------------------------|-------------------------------|


  Q    Q     E  Q    E     E  E  E  S S S S S  S E.  S  
------------------------|--0--2------------------------|
----------------1----1--|--3-----3----1---1------3---3-|
----------------0----0--|-------------0---0-2h-4-------|
--0----0h----0--3----2--|-----------0---2--------------|
----------------3----3--|-----------0------------------|
------------------------|------------------------------|


   E      S.   S   E   Q     Q    S T    H         E  E  E  E   
--------------------------------------|--5---------5--5-----3--|
--10----(10)--10------10--------------|--5h--------5--5-----3--|
--12pb--(12)b-12b--L--10--------------|--5h--------5--5-----0--|
----------------------------12--------|------------------------|
--------------------------------------|------------------------|
--------------------------------------|------------------------|


                      Verse 2                                        
  W                   Q.      Q    E  E  E     Q.     Q    E  E  E   
--L----------------|--2---------------2-----|--1--------------8-----|
--L----------------|--3------------------3--|--------------------6--|
--L----------------|--2---------------------|-----------------------|
-------------------|--0-------L----0--------|--0------L----0--------|
-------------------|------------------------|-----------------------|
-------------------|------------------------|-----------------------|


  Q.     Q    E  E  E     E  E  E  E  E  E  Q     
-----------------8-----|--------8-----0----------|
--6-----------------6--|--L--6-----------6-------|
--5--------------------|-----------5-------------|
--------------0--------|--0----------------------|
-----------------------|-------------------------|
-----------------------|-------------------------|


  H.           E  E     Q    E  E  E  E  E  E   
---------------------|-------------------8-----|
--7------------7-----|--6-------6--L--------6--|
--7---------------7--|-------7--------7--------|
--7------------------|-------------------------|
---------------------|-------------------------|
---------------------|-------------------------|


  Q.     E  E  E  E  E     E  E  E  E  E  E  Q     
------------------8-----|--------8-----0----------|
---------------------6--|--L--6-----------6-------|
--7---------------------|-----------5-------------|
------------0--0--------|--0----------------------|
------------------------|-------------------------|
------------------------|-------------------------|


   Q    E   S  S E   Q.         Q     E   S  S E   E  E  E   
--10----------10-L----------|---------------10-L------------|
--10-------10-------10------|--10----10--10-------10--------|
---9----9---9--------9------|---9-----9---------------9-----|
----------------------------|-------------------------------|
----------------------------|-------------------------------|
----------------------------|-------------------------------|


   E  E  Q     E  E  Q       E  E  E  E  E  Q    E   
--------------10----------|-------------------------|
---8--L-----------8-------|-----3-------------------|
---9-----9-----------9----|--------0-----L----------|
--10----------------------|--5--------0--4--5----L--|
--------------------------|-------------------------|
--------------------------|-------------------------|


  W                   E  S S E  S S S S E  S S S S  
--0----------------|-----0--------------0----0---0-|
--0----------------|-------2-L----2-L------0---0---|
--0----------------|------------2-----2------------|
--2----------------|--2----------------------------|
-------------------|--0----------------------------|
-------------------|-------------------------------|


  W                   E  S S S S S S S S S S E  E   
--0----------------|-----0---0-----------0---0-----|
--0----------------|-------------2-----------------|
--0----------------|-------2---2---2-L-2---2-------|
--2----------------|--2----------------------------|
-------------------|--0----------------------------|
-------------------|-------------------------------|


  W                    E  E   E   S S S S  Q.      
--0----------------|------0-------------0---------|
--0----------------|--10-----10-----------10------|
--0----------------|---9------------9-L-----------|
--2----------------|--11---------11---------------|
-------------------|------------------------------|
-------------------|------------------------------|


  Q    E.  S E  E  Q       Q    E.  S S S E  Q     
--0--------0-L----------|--0--------0-L-----------|
--2----2--------2--2----|--3----3---------3--L----|
--3---------------------|--0------------0---------|
--4---------------------|-------------------------|
------------------------|-------------------------|
------------------------|-------------------------|


                      Chorus                   
  W                   Q      E.  S E  Q    E   
--3----------------|--2------2---2-2----------|
--3----------------|--3------3---3-3--2----2--|
--0----------------|--2------2---2-2--2----2--|
-------------------|--0------0---0-0--2----2--|
-------------------|------------------0----0--|
-------------------|--------------------------|


  Q    Q    S  S E  S S E     Q    E.  S E  Q    E   
--3----3-------------------|--2----2---2-2----------|
--3----3-------------------|--3----3---3-3--2----2--|
--0----0--------------0----|--2----2---2-2--2----2--|
--0----0---------0--L-0-2--|--0----0---0-0--2----2--|
--2----2----0h-2--------0--|----------------0----0--|
--3----3-------------------|------------------------|


  Q    Q    S  S E  S S E     Q    E.  S E  E  E  E   
--3----3-------------------|--2----2---2-2--2--2-----|
--3----3-------------------|--3----3---3-3--3--3-----|
--0----0--------------0----|--2----2---2-2--2--2-----|
--0----0---------0--L-0-2--|--0----0---0-0--0--0--0--|
--2----2----0h-2--------0--|----------------------0--|
--3----3-------------------|-------------------------|


  Q    E.  S Q    E  E     Q    E.  S   E  Q    E   
------------------------|--------------------------|
--2----2---2-2----2-----|--1----1---1---1--1-------|
--2----2---2-2----2-----|--0----0---0---0--0-------|
--2----2---2-2----2--0--|--2----2---2-2g3--2-------|
--0----0---0-0----0--0--|--3----3---3---3--3----0--|
------------------------|--------------------------|


  W                   H        E  E  E  E     W                 
--3----------------|--L--------------------|--0----------------|
--3----------------|--L--------------------|--0----------------|
--0----------------|--L--------------------|--0----------------|
--0----------------|--L-----------------2--|-------------------|
--2----------------|--L--------0--2--3-----|-------------------|
--3----------------|--L--------------------|-------------------|


  H        E  E  E  E     W                   H        E   E  Q     
--L--------------------|--0----------------|--L--------------------|
--L--------------------|--0----------------|--L--------------------|
--L--------------------|--0----------------|--L---------------0----|
--------------------2--|-------------------|-----------0h--2-------|
-----------0--2--3-----|-------------------|-----------------------|
-----------------------|-------------------|-----------------------|


  W                   H        E  E  E  E   
--3----------------|--L--------------------|
--3----------------|--L--------------------|
--0----------------|--L--------3--2--------|
--0----------------|--L--------------3--0--|
-------------------|-----------------------|
-------------------|-----------------------|


  Solo                                                     
  S    S E  E  E  E  E  E   E     E  E  E  E  E  E  E  E   
-------------------------------|-----5-----------------5--|
--7----7-6--7--7--L--6--7p--3--|--6--5--6--------------5--|
--7----7-7--7--7--L-----7---3--|-----7-----7--L--7--7-----|
-------------------------------|--------------------------|
-------------------------------|--------------------------|
-------------------------------|--------------------------|


  E  E  E  E  S S E   S  S S S  
-------------------------------|
--6--5--3--1--L-1-3b--3p-1---0-|
--0------------------------2---|
--0----------------------------|
-------------------------------|
-------------------------------|


  S  S S  S S  S S  S S S S   S S  S S  S  
------------------------------------------|
-------3p-0------3p-0---3-3---------------|
--2s-4------4s-5------5-----xg7-7s-9-9s-7-|
------------------------------------------|
------------------------------------------|
------------------------------------------|


   E   E   E   E  S  E   S  S   S  S  S  
----------------------------------------|
--10---9--10--10--L-10---9--9s-10-10-10-|
--11--10--11--11--L-11--10-10s-11-11-11-|
---------------0--L---------------------|
---------------0--L---------------------|
----------------------------------------|


  E   E   E   S  S S  S  E  E   E   
-----10---------10-L----10--L------|
---------10--10------10--------10--|
-----------------------------------|
--0--------------------------------|
-----------------------------------|
-----------------------------------|


   S   S  S  S  S   S  S  S  S  S  S  S  S  S  S  S  
----------------------------------------------------|
--13p-10-10-10-13p-10-10-10-13-13-13-13-13-12-12----|
-------------------------------------------------12-|
----------------------------------------------------|
----------------------------------------------------|
----------------------------------------------------|


   E   E   Q      S   S  E   E   S  S  
--------------------------------------|
------12----------------10-------x-10-|
--12------12----4g9h-10-----10---x-10-|
---0----------------------------------|
--------------------------------------|
--------------------------------------|


  S   E  S S S S S S    E  S S  S S S  
-------------7------------------------|
-------------7----------------------x-|
--9b-10--9-9-7---7---9g10--9-9p-7---x-|
---------------9-7----------------9-x-|
--------------------------------------|
--------------------------------------|


  S  S E  E  S S  S  S E  E  S S  
---------------------------------|
-------------0-------------------|
--4p-2-------0-4--Lp-2----2--2-2-|
-------3--0--0---------3--0--0-0-|
---------------------------------|
---------------------------------|


    E  E  E  E   S  S  S  S  S  S  S  S  
----------------10-10-10-10-10-10-10-10-|
--5g7--7--8--8--10-10-10-12-12-10-10-10-|
--5g7--7--9--9--11-11-11-12-12-11-11-11-|
----------------------------------------|
----------------------------------------|
----------------------------------------|


   S  S  S  S  S  S  S  S  E    S  S  S  E.       W                 
--10-10-10-10-10-10--------------------------|---------------------|
--12-10-10-10-12-10----12---------------12---|--7g3----------------|
--12-11-11-11-12----12----12b--12-12b-L-12---|--7g2----------------|
---------------------------------------------|----0----------------|
---------------------------------------------|---------------------|
---------------------------------------------|---------------------|


                      Verse 3                                        
  W                   Q.      Q    E  E  E     Q.     Q    E  E  E   
-------------------|--2---------------2-----|--1--------------8-----|
--L----------------|--3------------------3--|--------------------6--|
--L----------------|--2---------------------|-----------------------|
--L----------------|--0-------L----0--------|--0------L----0--------|
-------------------|------------------------|-----------------------|
-------------------|------------------------|-----------------------|


  Q.     Q    E  E  E     E  E  E  E  E  E  Q     
-----------------8-----|--------8-----0----------|
--6-----------------6--|--L--6-----------6-------|
--5--------------------|-----------5-------------|
--------------0--------|--0----------------------|
-----------------------|-------------------------|
-----------------------|-------------------------|


  H.           E  E     Q    E  E  E  E  E  E   
---------------------|-------------------8-----|
--7------------7-----|--6-------6--L--------6--|
--7---------------7--|-------7--------7--------|
--7------------------|-------------------------|
---------------------|-------------------------|
---------------------|-------------------------|


  Q.     E  E  E  E  E     E  E  E  E  E  E  Q     
------------------8-----|--------8-----0----------|
---------------------6--|--L--6-----------6-------|
--7---------------------|-----------5-------------|
------------0--0--------|--0----------------------|
------------------------|-------------------------|
------------------------|-------------------------|


   Q    E   S  S E   Q.         Q     E   S  S E   E  E  E   
--10----------10-L----------|---------------10-L------------|
--10-------10-------10------|--10----10--10-------10--------|
---9----9---9--------9------|---9-----9---------------9-----|
----------------------------|-------------------------------|
----------------------------|-------------------------------|
----------------------------|-------------------------------|


   E  E  Q     E  E  Q       E  E  E  E  E  Q    E   
--------------10----------|-------------------------|
---8--L-----------8-------|-----3-------------------|
---9-----9-----------9----|--------0-----L----------|
--10----------------------|--5--------0--4--5----L--|
--------------------------|-------------------------|
--------------------------|-------------------------|


  W                   E  S S E  S S S S E  S S S S  
--0----------------|-----0--------------0----0---0-|
--0----------------|-------2-L----2-L------0---0---|
--0----------------|------------2-----2------------|
--2----------------|--2----------------------------|
-------------------|--0----------------------------|
-------------------|-------------------------------|


  W                   E  S S S S S S S S S S E  E   
--0----------------|-----0---0-----------0---0-----|
--0----------------|-------------2-----------------|
--0----------------|-------2---2---2-L-2---2-------|
--2----------------|--2----------------------------|
-------------------|--0----------------------------|
-------------------|-------------------------------|


  W                    E  E   E   S S S S  Q.      
--0----------------|------0-------------0---------|
--0----------------|--10-----10-----------10------|
--0----------------|---9------------9-L-----------|
--2----------------|--11---------11---------------|
-------------------|------------------------------|
-------------------|------------------------------|


  Q    E.  S E  E  Q       Q    E.  S S S E  Q     
--0--------0-L----------|--0--------0-L-----------|
--2----2--------2--2----|--3----3---------3--L----|
--3---------------------|--0------------0---------|
--4---------------------|-------------------------|
------------------------|-------------------------|
------------------------|-------------------------|


                      Chorus                   
  W                   Q      E.  S E  Q    E   
--3----------------|--2------2---2-2----------|
--3----------------|--3------3---3-3--2----2--|
--0----------------|--2------2---2-2--2----2--|
-------------------|--0------0---0-0--2----2--|
-------------------|------------------0----0--|
-------------------|--------------------------|


  Q    Q    S  S E  S S E     Q    E.  S E  Q    E   
--3----3-------------------|--2----2---2-2----------|
--3----3-------------------|--3----3---3-3--2----2--|
--0----0--------------0----|--2----2---2-2--2----2--|
--0----0---------0--L-0-2--|--0----0---0-0--2----2--|
--2----2----0h-2--------0--|----------------0----0--|
--3----3-------------------|------------------------|


  Q    Q    S  S E  S S E     Q    E.  S E  E  E  E   
--3----3-------------------|--2----2---2-2--2--2-----|
--3----3-------------------|--3----3---3-3--3--3-----|
--0----0--------------0----|--2----2---2-2--2--2-----|
--0----0---------0--L-0-2--|--0----0---0-0--0--0--0--|
--2----2----0h-2--------0--|----------------------0--|
--3----3-------------------|-------------------------|


  Q    E.  S Q    E  E     Q    E.  S   E  Q    E   
------------------------|--------------------------|
--2----2---2-2----2-----|--1----1---1---1--1-------|
--2----2---2-2----2-----|--0----0---0---0--0-------|
--2----2---2-2----2--0--|--2----2---2-2g3--2-------|
--0----0---0-0----0--0--|--3----3---3---3--3----0--|
------------------------|--------------------------|


  Q    E.  S S  S E  S S E     Q    E.  S E  Q    E   
-------3---3----------------|--2----2---2-2----------|
-------3---3----------------|--3----3---3-3--2----2--|
-------0---0------0--L-0----|--2----2---2-2--2----2--|
-------0---0-0h-2------0-2--|--0----0---0-0--2----2--|
-------------------------0--|----------------0----0--|
--3-------------------------|------------------------|


  Q    Q    S  S E  S S E     Q    E.  S E  Q    E   
--3----3-------------------|--2----2---2-2----------|
--3----3-------------------|--3----3---3-3--2----2--|
--0----0--------------0----|--2----2---2-2--2----2--|
--0----0---------0--L-0-2--|--0----0---0-0--2----2--|
--2----2----0h-2--------0--|----------------0----0--|
--3----3-------------------|------------------------|


  Q    Q    S  S E  S S E     Q    E.  S E  E  E  E   
--3----3-------------------|--2----2---2-2--2--2-----|
--3----3-------------------|--3----3---3-3--3--3-----|
--0----0--------------0----|--2----2---2-2--2--2-----|
--0----0---------0--L-0-2--|--0----0---0-0--0--0--0--|
--2----2----0h-2--------0--|----------------------0--|
--3----3-------------------|-------------------------|


  Q    E.  S Q    E  E     Q    E.  S S  S E  E  E   
------------------------|---------------------------|
--2----2---2-2----2-----|--1----1---1---------------|
--2----2---2-2----2-----|--0----0---0---------------|
--2----2---2-2----2--0--|--2----2---2-2h-3-2--L--0--|
--0----0---0-0----0--0--|--3----3---3---------------|
------------------------|---------------------------|


  W                   H        E  E  E  E     W                  
--3----------------|--L--------------------|--0----------------||
--3----------------|--L--------------------|--3----------------||
--0----------------|--L--------------------|--2----------------||
--0----------------|--L-----------------2--|--0----------------||
--2----------------|--L--------0--2--3-----|-------------------||
--3----------------|--L--------------------|-------------------||




Duration Legend
---------------
W - whole
H - half
Q - quarter
E - 8th
S - 16th
T - 32nd
X - 64th
. - note dotted
|-n-|  - n-tuplets


Tablature Legend
----------------
L - tied note
x - dead note
g - grace note
(n) - ghost note
> - accentuded note
NH - natural harmonic
AH - artificial harmonic
TH - tapped harmonic
SH - semi harmonic
PH - pitch harmonic
h - hammer on
p - pull off
b - bend
br - bendRelease
pb - preBend
pbr - preBendRelease
brb - bendReleaseBend
\n/ - tremolo bar dip
\n - tremolo bar dive
-/n - tremolo bar Release up
/n\ - tremolo bar inverted dip
/n - tremolo bar return
-\n - tremolo bar Release down
S - shift slide
s - legato slide
/ -  slide into from below or out of upwards
\ -  slide into from above or out of downwards
~ - vibrato
W - wide vibrato
tr - trill
TP - tremolo picking
T - tapping
S - slap
P - pop
< - fade in
^ - brush up
v - brush down
Добавлено: 05.05.2012
Другие материалы по этой песне:

Страница создана 05.05.2012
http://primanota.ru/bluetones/putting-out-fires-chords.htm
Привет, Гость.
Предлагаем пройти революционный курс по гитаре.
Подарок от PrimaNota.Ru, забирай!