PrimaNota.ru - самый крупный в мире бесплатный архив песенных текстов, аккордов, табулатур и нот


Blues Traveler - Roseanne Theme - таба, видео

Регистрация Запомнить меня
Войти через:  Facebook Google Twitter Vk Yandex Mail.ru

Blues Traveler - Roseanne Theme - таба, видео

Печатать
Просмотров: 78
This is damn near the whole intro to the Sitcom Roseanne. I was having trouble figuring 
out the end where it goes pretty fast, but I believe this is all correct up until that 
point. Hell, maybe someone could finish it out. Lemme know if that happens ^^.

I usually start it with a slide up to an E-minor chord to start, but sauce it up anyway 
you desire. It is Blues after all Ha!)

g----------------0--------------------------------------------------------------|
d---/2-2--2-0-2-----2--0--2-4^-2----2--0--2-0-2---0--2-2-------------0-2-0-2----|
a------------------------------------------------------------------2------------|
E--------------------------------------------------------0----------------------|

g------2-1------------------1-2-4-2-1----------------------------0-2-1-2--1-2-4-|
d-0-2------2--2--0--2-4^-2-----------2--0--2--0--2--0--2-2-/9--2----------------|
a-------------------------------------------------------------------------------|
E-------------------------------------------------------------------------------|
Добавлено: 10.10.2013
Другие материалы по этой песне:
  • Аккорды и текст

Страница создана 10.10.2013
http://primanota.ru/blues-traveler/roseanne-theme-chords.htm
Привет, Гость.
Предлагаем пройти революционный курс по гитаре.
Подарок от PrimaNota.Ru, забирай!