PrimaNota.ru - самый крупный в мире бесплатный архив песенных текстов, аккордов, табулатур и нот


Blues Saraceno - Bong Squad - таба, видео

Регистрация Запомнить меня
Войти через:  Facebook Google Twitter Vk Yandex Mail.ru

Blues Saraceno - Bong Squad - таба, видео

Печатать
Просмотров: 303
-------------------------------------------------------------------------------
                             SONG NAME - Band Name
-------------------------------------------------------------------------------
Tabbed by:Matt
Email:lotsabooya@hotmail.com
ey guys i thought this would be cool to share with people considering it is from the 
of duty: world at war launch trailer
i didnt bother changing the tuning on the tab itself, but you should all know its drop C 
what is said


Tuning:Drop C
intro(clean with delay)
e|---------------------------------------------------------------------------|
B|---------------------------------------------------------------------------|
G|---------7-----------------------------------------------------------------|
D|---2----5---7--------------------------------------------------------------|
A|----2------5----7----------------------------------------------------------|
E|--0------------5-----------------------------------------------------------|
(Verse with distortion and no delay)
e|---------------------------------------------------------------------------|
B|---------------------------------------------------------------------------|
G|--------7-9---------------7-9-7---------7-9-7------------------------------|
D|----2---7-9--7-8-5-----2--7-9-7-8-7--2--7-9-7--8---7-5-2-2--7-8-7-5-2------|
A|----2---5-7--7-8-5-----2--5-7-5-8-7--2--5-7-5--8---7-5-2-2--7-8-7-5-2------|
E|----0--------5-6-3-----0--------6-5--0---------6---5-3-0-0--5-6-5-3-0------|
this is the part that follows after repeating the verse twice
e|---------------------------------------------------------------------------|
B|---------------------------------------------------------------------------|
G|---------------------------------------------------------------------------|
D|--3-2-3-3---4-4---5-5------------------------------------------------------|
A|--3-2-3-3---4-4---5-5------------------------------------------------------|
E|--1-0-1-1---2-2---3-3------------------------------------------------------|
this is the part that leads back into the verse
e|----------------|
B|----------------|
G|----------------|
D|-7-8-7-5-2------|
A|-7-8-7-5-2------|
E|-5-6-5-3-0------|
and thats it, you just gotta time it right, listen to the song to find this out
thanx
Matt
Добавлено: 17.07.2012
Другие материалы по этой песне:
  • Аккорды и текст

Страница создана 24.04.2012
http://primanota.ru/blues-saraceno/bong-squad-chords.htm
Привет, Гость.
Предлагаем пройти революционный курс по гитаре.
Подарок от PrimaNota.Ru, забирай!